  0
SECTION
  2
HEADER
  9
$ACADVER
  1
AC1018
  9
$ACADMAINTVER
 70
     0
  9
$DWGCODEPAGE
  3
ANSI_1252
  9
$INSBASE
 10
0.0
 20
0.0
 30
0.0
  9
$EXTMIN
 10
-0.5
 20
-0.5
 30
-0.5
  9
$EXTMAX
 10
5.0
 20
5.0
 30
5.0
  9
$LIMMIN
 10
-0.5
 20
-0.5
  9
$LIMMAX
 10
5.0
 20
5.0
  9
$ORTHOMODE
 70
     0
  9
$REGENMODE
 70
     1
  9
$FILLMODE
 70
     1
  9
$QTEXTMODE
 70
     0
  9
$MIRRTEXT
 70
     1
  9
$LTSCALE
 40
1.0
  9
$ATTMODE
 70
     1
  9
$TEXTSIZE
 40
0.2
  9
$TRACEWID
 40
0.05
  9
$TEXTSTYLE
  7
Standard
  9
$CLAYER
  8
0
  9
$CELTYPE
  6
ByLayer
  9
$CECOLOR
 62
   256
  9
$CELTSCALE
 40
1.0
  9
$DISPSILH
 70
     0
  9
$DIMSCALE
 40
1.0
  9
$DIMASZ
 40
0.18
  9
$DIMEXO
 40
0.0625
  9
$DIMDLI
 40
0.38
  9
$DIMRND
 40
0.0
  9
$DIMDLE
 40
0.0
  9
$DIMEXE
 40
0.18
  9
$DIMTP
 40
0.0
  9
$DIMTM
 40
0.0
  9
$DIMTXT
 40
0.18
  9
$DIMCEN
 40
0.09
  9
$DIMTSZ
 40
0.0
  9
$DIMTOL
 70
     0
  9
$DIMLIM
 70
     0
  9
$DIMTIH
 70
     1
  9
$DIMTOH
 70
     1
  9
$DIMSE1
 70
     0
  9
$DIMSE2
 70
     0
  9
$DIMTAD
 70
     0
  9
$DIMZIN
 70
     0
  9
$DIMBLK
  1

  9
$DIMASO
 70
     1
  9
$DIMSHO
 70
     1
  9
$DIMPOST
  1

  9
$DIMAPOST
  1

  9
$DIMALT
 70
     0
  9
$DIMALTD
 70
     2
  9
$DIMALTF
 40
25.4
  9
$DIMLFAC
 40
1.0
  9
$DIMTOFL
 70
     0
  9
$DIMTVP
 40
0.0
  9
$DIMTIX
 70
     0
  9
$DIMSOXD
 70
     0
  9
$DIMSAH
 70
     0
  9
$DIMBLK1
  1

  9
$DIMBLK2
  1

  9
$DIMSTYLE
  2
Standard
  9
$DIMCLRD
 70
     0
  9
$DIMCLRE
 70
     0
  9
$DIMCLRT
 70
     0
  9
$DIMTFAC
 40
1.0
  9
$DIMGAP
 40
0.09
  9
$DIMJUST
 70
     0
  9
$DIMSD1
 70
     0
  9
$DIMSD2
 70
     0
  9
$DIMTOLJ
 70
     1
  9
$DIMTZIN
 70
     0
  9
$DIMALTZ
 70
     0
  9
$DIMALTTZ
 70
     0
  9
$DIMUPT
 70
     0
  9
$DIMDEC
 70
     4
  9
$DIMTDEC
 70
     4
  9
$DIMALTU
 70
     2
  9
$DIMALTTD
 70
     2
  9
$DIMTXSTY
  7
Standard
  9
$DIMAUNIT
 70
     0
  9
$DIMADEC
 70
     0
  9
$DIMALTRND
 40
0.0
  9
$DIMAZIN
 70
     0
  9
$DIMDSEP
 70
    46
  9
$DIMATFIT
 70
     3
  9
$DIMFRAC
 70
     0
  9
$DIMLDRBLK
  1

  9
$DIMLUNIT
 70
     2
  9
$DIMLWD
 70
    -2
  9
$DIMLWE
 70
    -2
  9
$DIMTMOVE
 70
     0
  9
$LUNITS
 70
     2
  9
$LUPREC
 70
     4
  9
$SKETCHINC
 40
0.1
  9
$FILLETRAD
 40
0.5
  9
$AUNITS
 70
     0
  9
$AUPREC
 70
     0
  9
$MENU
  1
.
  9
$ELEVATION
 40
0.0
  9
$PELEVATION
 40
0.0
  9
$THICKNESS
 40
0.0
  9
$LIMCHECK
 70
     0
  9
$CHAMFERA
 40
0.0
  9
$CHAMFERB
 40
0.0
  9
$CHAMFERC
 40
0.0
  9
$CHAMFERD
 40
0.0
  9
$SKPOLY
 70
     0
  9
$TDCREATE
 40
2460054.385951505
  9
$TDUCREATE
 40
2460054.302618171
  9
$TDUPDATE
 40
2460054.38595169
  9
$TDUUPDATE
 40
2460054.302618356
  9
$TDINDWG
 40
0.0000000116
  9
$TDUSRTIMER
 40
0.0000000116
  9
$USRTIMER
 70
     1
  9
$ANGBASE
 50
0.0
  9
$ANGDIR
 70
     0
  9
$PDMODE
 70
     0
  9
$PDSIZE
 40
0.0
  9
$PLINEWID
 40
0.0
  9
$SPLFRAME
 70
     0
  9
$SPLINETYPE
 70
     6
  9
$SPLINESEGS
 70
     8
  9
$HANDSEED
  5
1B9
  9
$SURFTAB1
 70
     6
  9
$SURFTAB2
 70
     6
  9
$SURFTYPE
 70
     6
  9
$SURFU
 70
     6
  9
$SURFV
 70
     6
  9
$UCSBASE
  2

  9
$UCSNAME
  2

  9
$UCSORG
 10
0.0
 20
0.0
 30
0.0
  9
$UCSXDIR
 10
1.0
 20
0.0
 30
0.0
  9
$UCSYDIR
 10
0.0
 20
1.0
 30
0.0
  9
$UCSORTHOREF
  2

  9
$UCSORTHOVIEW
 70
     0
  9
$UCSORGTOP
 10
0.0
 20
0.0
 30
0.0
  9
$UCSORGBOTTOM
 10
0.0
 20
0.0
 30
0.0
  9
$UCSORGLEFT
 10
0.0
 20
0.0
 30
0.0
  9
$UCSORGRIGHT
 10
0.0
 20
0.0
 30
0.0
  9
$UCSORGFRONT
 10
0.0
 20
0.0
 30
0.0
  9
$UCSORGBACK
 10
0.0
 20
0.0
 30
0.0
  9
$PUCSBASE
  2

  9
$PUCSNAME
  2

  9
$PUCSORG
 10
0.0
 20
0.0
 30
0.0
  9
$PUCSXDIR
 10
1.0
 20
0.0
 30
0.0
  9
$PUCSYDIR
 10
0.0
 20
1.0
 30
0.0
  9
$PUCSORTHOREF
  2

  9
$PUCSORTHOVIEW
 70
     0
  9
$PUCSORGTOP
 10
0.0
 20
0.0
 30
0.0
  9
$PUCSORGBOTTOM
 10
0.0
 20
0.0
 30
0.0
  9
$PUCSORGLEFT
 10
0.0
 20
0.0
 30
0.0
  9
$PUCSORGRIGHT
 10
0.0
 20
0.0
 30
0.0
  9
$PUCSORGFRONT
 10
0.0
 20
0.0
 30
0.0
  9
$PUCSORGBACK
 10
0.0
 20
0.0
 30
0.0
  9
$USERI1
 70
     0
  9
$USERI2
 70
     0
  9
$USERI3
 70
     0
  9
$USERI4
 70
     0
  9
$USERI5
 70
     0
  9
$USERR1
 40
0.0
  9
$USERR2
 40
0.0
  9
$USERR3
 40
0.0
  9
$USERR4
 40
0.0
  9
$USERR5
 40
0.0
  9
$WORLDVIEW
 70
     1
  9
$SHADEDGE
 70
     3
  9
$SHADEDIF
 70
    70
  9
$TILEMODE
 70
     1
  9
$MAXACTVP
 70
    64
  9
$PINSBASE
 10
0.0
 20
0.0
 30
0.0
  9
$PLIMCHECK
 70
     0
  9
$PEXTMIN
 10
-0.5
 20
-0.5
 30
-0.5
  9
$PEXTMAX
 10
5.0
 20
5.0
 30
5.0
  9
$PLIMMIN
 10
-0.5
 20
-0.5
  9
$PLIMMAX
 10
5.0
 20
5.0
  9
$UNITMODE
 70
     0
  9
$VISRETAIN
 70
     1
  9
$PLINEGEN
 70
     0
  9
$PSLTSCALE
 70
     1
  9
$TREEDEPTH
 70
  3020
  9
$CMLSTYLE
  2
Standard
  9
$CMLJUST
 70
     0
  9
$CMLSCALE
 40
1.0
  9
$PROXYGRAPHICS
 70
     1
  9
$MEASUREMENT
 70
     1
  9
$CELWEIGHT
370
    18
  9
$ENDCAPS
280
     0
  9
$JOINSTYLE
280
     0
  9
$LWDISPLAY
290
     1
  9
$INSUNITS
 70
     4
  9
$HYPERLINKBASE
  1

  9
$STYLESHEET
  1

  9
$XEDIT
290
     1
  9
$CEPSNTYPE
380
     0
  9
$PSTYLEMODE
290
     1
  9
$FINGERPRINTGUID
  2
{5C5474CB-C39C-41BB-A36A-E7C4F08D7B24}
  9
$VERSIONGUID
  2
{FAEB1C32-E019-11D5-929B-00C0DF256EC4}
  9
$EXTNAMES
290
     1
  9
$PSVPSCALE
 40
0.0
  9
$OLESTARTUP
290
     0
  9
$SORTENTS
280
   127
  9
$INDEXCTL
280
     0
  9
$HIDETEXT
280
     1
  9
$XCLIPFRAME
290
     0
  9
$HALOGAP
280
     0
  9
$OBSCOLOR
 70
   257
  9
$OBSLTYPE
280
     0
  9
$INTERSECTIONDISPLAY
280
     0
  9
$INTERSECTIONCOLOR
 70
   257
  9
$DIMASSOC
280
     2
  9
$PROJECTNAME
  1

  0
ENDSEC
  0
SECTION
  2
CLASSES
  0
CLASS
  1
ACDBDICTIONARYWDFLT
  2
AcDbDictionaryWithDefault
  3
ObjectDBX Classes
 90
        0
 91
        3
280
     0
281
     0
  0
CLASS
  1
VISUALSTYLE
  2
AcDbVisualStyle
  3
ObjectDBX Classes
 90
     4095
 91
        3
280
     0
281
     0
  0
CLASS
  1
MATERIAL
  2
AcDbMaterial
  3
ObjectDBX Classes
 90
     1153
 91
        3
280
     0
281
     0
  0
CLASS
  1
SCALE
  2
AcDbScale
  3
ObjectDBX Classes
 90
     1153
 91
        3
280
     0
281
     0
  0
CLASS
  1
TABLESTYLE
  2
AcDbTableStyle
  3
ObjectDBX Classes
 90
     4095
 91
        3
280
     0
281
     0
  0
CLASS
  1
MLEADERSTYLE
  2
AcDbMLeaderStyle
  3
ACDB_MLEADERSTYLE_CLASS
 90
     4095
 91
        3
280
     0
281
     0
  0
CLASS
  1
SUN
  2
AcDbSun
  3
SCENEOE
 90
     1153
 91
        3
280
     0
281
     0
  0
CLASS
  1
DICTIONARYVAR
  2
AcDbDictionaryVar
  3
ObjectDBX Classes
 90
        0
 91
        3
280
     0
281
     0
  0
CLASS
  1
CELLSTYLEMAP
  2
AcDbCellStyleMap
  3
ObjectDBX Classes
 90
     1152
 91
        3
280
     0
281
     0
  0
ENDSEC
  0
SECTION
  2
TABLES
  0
TABLE
  2
VPORT
  5
8
102
{ACAD_XDICTIONARY
360
172
102
}
330
0
100
AcDbSymbolTable
 70
    16
  0
VPORT
  5
29
330
8
100
AcDbSymbolTableRecord
100
AcDbViewportTableRecord
  2
*Active
 70
     0
 10
0.0
 20
0.0
 11
1.0
 21
1.0
 12
547.221408
 22
506.937267
 13
0.0
 23
0.0
 14
0.5
 24
0.5
 15
0.5
 25
0.5
 16
0.0
 26
0.0
 36
1.0
 17
0.0
 27
0.0
 37
0.0
 40
256.910417
 41
0.069117
 42
50.0
 43
1080.818905
 44
-1080.818905
 50
0.0
 51
0.0
 71
     0
 72
   100
 73
     1
 74
     3
 75
     0
 76
     0
 77
     0
 78
     0
281
     0
 65
     1
110
0.0
120
0.0
130
0.0
111
1.0
121
0.0
131
0.0
112
0.0
122
1.0
132
0.0
 79
     0
146
0.0
  0
VPORT
  5
163
330
8
100
AcDbSymbolTableRecord
100
AcDbViewportTableRecord
  2
L1
 70
     0
 10
0.0
 20
0.0
 11
1.0
 21
1.0
 12
547.221408
 22
506.937267
 13
0.0
 23
0.0
 14
0.5
 24
0.5
 15
0.5
 25
0.5
 16
0.0
 26
0.0
 36
1.0
 17
0.0
 27
0.0
 37
0.0
 40
256.910417
 41
0.069117
 42
50.0
 43
1080.818905
 44
-1080.818905
 50
0.0
 51
0.0
 71
     0
 72
   100
 73
     1
 74
     3
 75
     0
 76
     0
 77
     0
 78
     0
281
     0
 65
     1
110
0.0
120
0.0
130
0.0
111
1.0
121
0.0
131
0.0
112
0.0
122
1.0
132
0.0
 79
     0
146
0.0
  0
VPORT
  5
164
330
8
100
AcDbSymbolTableRecord
100
AcDbViewportTableRecord
  2
L2
 70
     0
 10
0.0
 20
0.0
 11
0.5
 21
1.0
 12
0.0
 22
0.0
 13
0.0
 23
0.0
 14
0.5
 24
0.5
 15
0.5
 25
0.5
 16
0.0
 26
-1.0
 36
0.0
 17
0.0
 27
0.0
 37
0.0
 40
1599.038483
 41
0.011105
 42
50.0
 43
822.955166
 44
-822.955166
 50
0.0
 51
0.0
 71
     0
 72
   100
 73
     1
 74
     3
 75
     0
 76
     0
 77
     0
 78
     0
281
     0
 65
     1
110
0.0
120
0.0
130
0.0
111
1.0
121
0.0
131
0.0
112
0.0
122
1.0
132
0.0
 79
     0
146
0.0
  0
VPORT
  5
165
330
8
100
AcDbSymbolTableRecord
100
AcDbViewportTableRecord
  2
L2
 70
     0
 10
0.5
 20
0.0
 11
1.0
 21
1.0
 12
0.0
 22
0.0
 13
0.0
 23
0.0
 14
0.5
 24
0.5
 15
0.5
 25
0.5
 16
1.0
 26
0.0
 36
0.0
 17
0.0
 27
0.0
 37
0.0
 40
1599.038483
 41
0.011105
 42
50.0
 43
809.772658
 44
-809.772658
 50
0.0
 51
0.0
 71
     0
 72
   100
 73
     1
 74
     3
 75
     0
 76
     0
 77
     0
 78
     0
281
     0
 65
     1
110
0.0
120
0.0
130
0.0
111
1.0
121
0.0
131
0.0
112
0.0
122
1.0
132
0.0
 79
     0
146
0.0
  0
VPORT
  5
166
330
8
100
AcDbSymbolTableRecord
100
AcDbViewportTableRecord
  2
L3
 70
     0
 10
0.0
 20
0.5
 11
1.0
 21
1.0
 12
547.221408
 22
506.937267
 13
0.0
 23
0.0
 14
0.5
 24
0.5
 15
0.5
 25
0.5
 16
0.0
 26
0.0
 36
1.0
 17
0.0
 27
0.0
 37
0.0
 40
256.910417
 41
0.069117
 42
50.0
 43
1080.818905
 44
-1080.818905
 50
0.0
 51
0.0
 71
     0
 72
   100
 73
     1
 74
     3
 75
     0
 76
     0
 77
     0
 78
     0
281
     0
 65
     1
110
0.0
120
0.0
130
0.0
111
1.0
121
0.0
131
0.0
112
0.0
122
1.0
132
0.0
 79
     0
146
0.0
  0
VPORT
  5
167
330
8
100
AcDbSymbolTableRecord
100
AcDbViewportTableRecord
  2
L3
 70
     0
 10
0.0
 20
0.0
 11
1.0
 21
0.5
 12
0.0
 22
0.0
 13
0.0
 23
0.0
 14
0.5
 24
0.5
 15
0.5
 25
0.5
 16
0.0
 26
-1.0
 36
0.0
 17
0.0
 27
0.0
 37
0.0
 40
1599.038483
 41
0.011105
 42
50.0
 43
822.955166
 44
-822.955166
 50
0.0
 51
0.0
 71
     0
 72
   100
 73
     1
 74
     3
 75
     0
 76
     0
 77
     0
 78
     0
281
     0
 65
     1
110
0.0
120
0.0
130
0.0
111
1.0
121
0.0
131
0.0
112
0.0
122
1.0
132
0.0
 79
     0
146
0.0
  0
VPORT
  5
168
330
8
100
AcDbSymbolTableRecord
100
AcDbViewportTableRecord
  2
L4
 70
     0
 10
0.0
 20
0.5
 11
0.5
 21
1.0
 12
547.221408
 22
506.937267
 13
0.0
 23
0.0
 14
0.5
 24
0.5
 15
0.5
 25
0.5
 16
0.0
 26
0.0
 36
1.0
 17
0.0
 27
0.0
 37
0.0
 40
256.910417
 41
0.069117
 42
50.0
 43
1080.818905
 44
-1080.818905
 50
0.0
 51
0.0
 71
     0
 72
   100
 73
     1
 74
     3
 75
     0
 76
     0
 77
     0
 78
     0
281
     0
 65
     1
110
0.0
120
0.0
130
0.0
111
1.0
121
0.0
131
0.0
112
0.0
122
1.0
132
0.0
 79
     0
146
0.0
  0
VPORT
  5
169
330
8
100
AcDbSymbolTableRecord
100
AcDbViewportTableRecord
  2
L4
 70
     0
 10
0.0
 20
0.0
 11
0.5
 21
0.5
 12
0.0
 22
0.0
 13
0.0
 23
0.0
 14
0.5
 24
0.5
 15
0.5
 25
0.5
 16
0.0
 26
-1.0
 36
0.0
 17
0.0
 27
0.0
 37
0.0
 40
1599.038483
 41
0.011105
 42
50.0
 43
822.955166
 44
-822.955166
 50
0.0
 51
0.0
 71
     0
 72
   100
 73
     1
 74
     3
 75
     0
 76
     0
 77
     0
 78
     0
281
     0
 65
     1
110
0.0
120
0.0
130
0.0
111
1.0
121
0.0
131
0.0
112
0.0
122
1.0
132
0.0
 79
     0
146
0.0
  0
VPORT
  5
16A
330
8
100
AcDbSymbolTableRecord
100
AcDbViewportTableRecord
  2
L4
 70
     0
 10
0.5
 20
0.0
 11
1.0
 21
0.5
 12
0.0
 22
0.0
 13
0.0
 23
0.0
 14
0.5
 24
0.5
 15
0.5
 25
0.5
 16
1.0
 26
0.0
 36
0.0
 17
0.0
 27
0.0
 37
0.0
 40
1599.038483
 41
0.011105
 42
50.0
 43
809.772658
 44
-809.772658
 50
0.0
 51
0.0
 71
     0
 72
   100
 73
     1
 74
     3
 75
     0
 76
     0
 77
     0
 78
     0
281
     0
 65
     1
110
0.0
120
0.0
130
0.0
111
1.0
121
0.0
131
0.0
112
0.0
122
1.0
132
0.0
 79
     0
146
0.0
  0
VPORT
  5
16B
330
8
100
AcDbSymbolTableRecord
100
AcDbViewportTableRecord
  2
L4
 70
     0
 10
0.5
 20
0.5
 11
1.0
 21
1.0
 12
0.0
 22
0.0
 13
0.0
 23
0.0
 14
0.5
 24
0.5
 15
0.5
 25
0.5
 16
0.5773502691896258
 26
-0.5773502691896258
 36
0.5773502691896258
 17
0.0
 27
0.0
 37
0.0
 40
1569.707825
 41
0.011312
 42
50.0
 43
817.50023
 44
-817.50023
 50
0.0
 51
0.0
 71
     0
 72
   100
 73
     1
 74
     3
 75
     0
 76
     0
 77
     0
 78
     0
281
     0
 65
     1
110
0.0
120
0.0
130
0.0
111
1.0
121
0.0
131
0.0
112
0.0
122
1.0
132
0.0
 79
     0
146
0.0
  0
VPORT
  5
16C
330
8
100
AcDbSymbolTableRecord
100
AcDbViewportTableRecord
  2
L6
 70
     0
 10
0.0
 20
0.5
 11
0.333333
 21
1.0
 12
0.0
 22
0.0
 13
0.0
 23
0.0
 14
0.5
 24
0.5
 15
0.5
 25
0.5
 16
0.7188730927569433
 26
-0.5850486126764433
 36
0.3754192287502549
 17
0.0
 27
0.0
 37
0.0
 40
1656.515283
 41
0.010719
 42
50.0
 43
857.679146
 44
-857.679146
 50
0.0
 51
0.0
 71
     0
 72
   100
 73
     1
 74
     3
 75
     0
 76
     0
 77
     0
 78
     0
281
     0
 65
     1
110
0.0
120
0.0
130
0.0
111
1.0
121
0.0
131
0.0
112
0.0
122
1.0
132
0.0
 79
     0
146
0.0
  0
VPORT
  5
16D
330
8
100
AcDbSymbolTableRecord
100
AcDbViewportTableRecord
  2
L6
 70
     0
 10
0.0
 20
0.0
 11
0.333333
 21
0.5
 12
0.0
 22
0.0
 13
0.0
 23
0.0
 14
0.5
 24
0.5
 15
0.5
 25
0.5
 16
-1.0
 26
0.0
 36
0.0
 17
0.0
 27
0.0
 37
0.0
 40
1599.038483
 41
0.011105
 42
50.0
 43
809.772658
 44
-809.772658
 50
0.0
 51
0.0
 71
     0
 72
   100
 73
     1
 74
     3
 75
     0
 76
     0
 77
     0
 78
     0
281
     0
 65
     1
110
0.0
120
0.0
130
0.0
111
1.0
121
0.0
131
0.0
112
0.0
122
1.0
132
0.0
 79
     0
146
0.0
  0
VPORT
  5
16E
330
8
100
AcDbSymbolTableRecord
100
AcDbViewportTableRecord
  2
L6
 70
     0
 10
0.333333
 20
0.5
 11
0.666667
 21
1.0
 12
547.221408
 22
506.937267
 13
0.0
 23
0.0
 14
0.5
 24
0.5
 15
0.5
 25
0.5
 16
0.0
 26
0.0
 36
1.0
 17
0.0
 27
0.0
 37
0.0
 40
256.910417
 41
0.069117
 42
50.0
 43
1080.818905
 44
-1080.818905
 50
0.0
 51
0.0
 71
     0
 72
   100
 73
     1
 74
     3
 75
     0
 76
     0
 77
     0
 78
     0
281
     0
 65
     1
110
0.0
120
0.0
130
0.0
111
1.0
121
0.0
131
0.0
112
0.0
122
1.0
132
0.0
 79
     0
146
0.0
  0
VPORT
  5
16F
330
8
100
AcDbSymbolTableRecord
100
AcDbViewportTableRecord
  2
L6
 70
     0
 10
0.333333
 20
0.0
 11
0.666667
 21
0.5
 12
0.0
 22
0.0
 13
0.0
 23
0.0
 14
0.5
 24
0.5
 15
0.5
 25
0.5
 16
0.0
 26
-1.0
 36
0.0
 17
0.0
 27
0.0
 37
0.0
 40
1599.038483
 41
0.011105
 42
50.0
 43
822.955166
 44
-822.955166
 50
0.0
 51
0.0
 71
     0
 72
   100
 73
     1
 74
     3
 75
     0
 76
     0
 77
     0
 78
     0
281
     0
 65
     1
110
0.0
120
0.0
130
0.0
111
1.0
121
0.0
131
0.0
112
0.0
122
1.0
132
0.0
 79
     0
146
0.0
  0
VPORT
  5
170
330
8
100
AcDbSymbolTableRecord
100
AcDbViewportTableRecord
  2
L6
 70
     0
 10
0.666667
 20
0.5
 11
1.0
 21
1.0
 12
0.0
 22
0.0
 13
0.0
 23
0.0
 14
0.5
 24
0.5
 15
0.5
 25
0.5
 16
0.5773502691896258
 26
-0.5773502691896258
 36
0.5773502691896258
 17
0.0
 27
0.0
 37
0.0
 40
1569.707825
 41
0.011312
 42
50.0
 43
817.50023
 44
-817.50023
 50
0.0
 51
0.0
 71
     0
 72
   100
 73
     1
 74
     3
 75
     0
 76
     0
 77
     0
 78
     0
281
     0
 65
     1
110
0.0
120
0.0
130
0.0
111
1.0
121
0.0
131
0.0
112
0.0
122
1.0
132
0.0
 79
     0
146
0.0
  0
VPORT
  5
171
330
8
100
AcDbSymbolTableRecord
100
AcDbViewportTableRecord
  2
L6
 70
     0
 10
0.666667
 20
0.0
 11
1.0
 21
0.5
 12
0.0
 22
0.0
 13
0.0
 23
0.0
 14
0.5
 24
0.5
 15
0.5
 25
0.5
 16
1.0
 26
0.0
 36
0.0
 17
0.0
 27
0.0
 37
0.0
 40
1599.038483
 41
0.011105
 42
50.0
 43
809.772658
 44
-809.772658
 50
0.0
 51
0.0
 71
     0
 72
   100
 73
     1
 74
     3
 75
     0
 76
     0
 77
     0
 78
     0
281
     0
 65
     1
110
0.0
120
0.0
130
0.0
111
1.0
121
0.0
131
0.0
112
0.0
122
1.0
132
0.0
 79
     0
146
0.0
  0
ENDTAB
  0
TABLE
  2
LTYPE
  5
5
330
0
100
AcDbSymbolTable
 70
     6
  0
LTYPE
  5
14
330
5
100
AcDbSymbolTableRecord
100
AcDbLinetypeTableRecord
  2
ByBlock
 70
     0
  3

 72
    65
 73
     0
 40
0.0
  0
LTYPE
  5
15
330
5
100
AcDbSymbolTableRecord
100
AcDbLinetypeTableRecord
  2
ByLayer
 70
     0
  3

 72
    65
 73
     0
 40
0.0
  0
LTYPE
  5
16
330
5
100
AcDbSymbolTableRecord
100
AcDbLinetypeTableRecord
  2
Continuous
 70
     0
  3
Solid line
 72
    65
 73
     0
 40
0.0
  0
LTYPE
  5
6E
330
5
100
AcDbSymbolTableRecord
100
AcDbLinetypeTableRecord
  2
CENTER
 70
     0
  3
____ _ ____ _ ____ _ ____
 72
    65
 73
     4
 40
47.4
 49
22.0
 74
     4
 75
     0
340
0
 46
0.0
 50
0.0
 44
0.0
 45
0.0
 49
-8.5
 74
     4
 75
     0
340
0
 46
0.0
 50
0.0
 44
0.0
 45
0.0
 49
8.5
 74
     4
 75
     0
340
0
 46
0.0
 50
0.0
 44
0.0
 45
0.0
 49
-8.5
 74
     4
 75
     0
340
0
 46
0.0
 50
0.0
 44
0.0
 45
0.0
  0
LTYPE
  5
6F
330
5
100
AcDbSymbolTableRecord
100
AcDbLinetypeTableRecord
  2
DASHDOT
 70
     0
  3
_._._._._._._._._._._._._._._._.
 72
    65
 73
     4
 40
70.0
 49
31.0
 74
     4
 75
     0
340
0
 46
0.0
 50
0.0
 44
0.0
 45
0.0
 49
-13.0
 74
     4
 75
     0
340
0
 46
0.0
 50
0.0
 44
0.0
 45
0.0
 49
13.0
 74
     4
 75
     0
340
0
 46
0.0
 50
0.0
 44
0.0
 45
0.0
 49
-13.0
 74
     4
 75
     0
340
0
 46
0.0
 50
0.0
 44
0.0
 45
0.0
  0
LTYPE
  5
70
330
5
100
AcDbSymbolTableRecord
100
AcDbLinetypeTableRecord
  2
DASHED
 70
     0
  3
__ __ __ __ __ __ __ __ __
 72
    65
 73
     2
 40
25.72
 49
12.86
 74
     4
 75
     0
340
0
 46
0.0
 50
0.0
 44
0.0
 45
0.0
 49
-12.86
 74
     4
 75
     0
340
0
 46
0.0
 50
0.0
 44
0.0
 45
0.0
  0
LTYPE
  5
71
330
5
100
AcDbSymbolTableRecord
100
AcDbLinetypeTableRecord
  2
DOT
 70
     0
  3
.........................
 72
    65
 73
     2
 40
10.0
 49
0.0
 74
     4
 75
     0
340
0
 46
0.0
 50
0.0
 44
0.0
 45
0.0
 49
-10.0
 74
     4
 75
     0
340
0
 46
0.0
 50
0.0
 44
0.0
 45
0.0
  0
LTYPE
  5
72
330
5
100
AcDbSymbolTableRecord
100
AcDbLinetypeTableRecord
  2
PHANTOM
 70
     0
  3
____ _ _ ____ _ _ _____ _ _ ____
 72
    65
 73
     6
 40
50.5
 49
18.0
 74
     4
 75
     0
340
0
 46
0.0
 50
0.0
 44
0.0
 45
0.0
 49
-6.5
 74
     4
 75
     0
340
0
 46
0.0
 50
0.0
 44
0.0
 45
0.0
 49
6.5
 74
     4
 75
     0
340
0
 46
0.0
 50
0.0
 44
0.0
 45
0.0
 49
-6.5
 74
     4
 75
     0
340
0
 46
0.0
 50
0.0
 44
0.0
 45
0.0
 49
6.5
 74
     4
 75
     0
340
0
 46
0.0
 50
0.0
 44
0.0
 45
0.0
 49
-6.5
 74
     4
 75
     0
340
0
 46
0.0
 50
0.0
 44
0.0
 45
0.0
  0
ENDTAB
  0
TABLE
  2
LAYER
  5
2
330
0
100
AcDbSymbolTable
 70
     2
  0
LAYER
  5
10
330
2
100
AcDbSymbolTableRecord
100
AcDbLayerTableRecord
  2
0
 70
     0
 62
     7
  6
Continuous
370
    -3
390
F
  0
LAYER
  5
74
330
2
100
AcDbSymbolTableRecord
100
AcDbLayerTableRecord
  2
1
 70
     0
 62
     7
420
 16777215
  6
Continuous
370
    -3
390
F
  0
ENDTAB
  0
TABLE
  2
STYLE
  5
3
330
0
100
AcDbSymbolTable
 70
     1
  0
STYLE
  5
11
330
3
100
AcDbSymbolTableRecord
100
AcDbTextStyleTableRecord
  2
Standard
 70
     0
 40
0.0
 41
1.0
 50
0.0
 71
     0
 42
0.2
  3
txt
  4

  0
ENDTAB
  0
TABLE
  2
VIEW
  5
6
330
0
100
AcDbSymbolTable
 70
     0
  0
ENDTAB
  0
TABLE
  2
UCS
  5
7
330
0
100
AcDbSymbolTable
 70
     0
  0
ENDTAB
  0
TABLE
  2
APPID
  5
9
330
0
100
AcDbSymbolTable
 70
     2
  0
APPID
  5
12
330
9
100
AcDbSymbolTableRecord
100
AcDbRegAppTableRecord
  2
ACAD
 70
     0
  0
APPID
  5
1B1
330
9
100
AcDbSymbolTableRecord
100
AcDbRegAppTableRecord
  2
ACAD_MLEADERVER
 70
     0
  0
ENDTAB
  0
TABLE
  2
DIMSTYLE
  5
A
330
0
100
AcDbSymbolTable
 70
     1
100
AcDbDimStyleTable
  0
DIMSTYLE
105
27
330
A
100
AcDbSymbolTableRecord
100
AcDbDimStyleTableRecord
  2
Standard
 70
     0
178
     0
340
11
  0
ENDTAB
  0
TABLE
  2
BLOCK_RECORD
  5
1
330
0
100
AcDbSymbolTable
 70
     1
  0
BLOCK_RECORD
  5
1F
330
1
100
AcDbSymbolTableRecord
100
AcDbBlockTableRecord
  2
*Model_Space
340
22
  0
BLOCK_RECORD
  5
1B
330
1
100
AcDbSymbolTableRecord
100
AcDbBlockTableRecord
  2
*Paper_Space
340
1E
  0
BLOCK_RECORD
  5
23
330
1
100
AcDbSymbolTableRecord
100
AcDbBlockTableRecord
  2
*Paper_Space0
340
26
  0
ENDTAB
  0
ENDSEC
  0
SECTION
  2
BLOCKS
  0
BLOCK
  5
20
330
1F
100
AcDbEntity
  8
0
100
AcDbBlockBegin
  2
*Model_Space
 70
     0
 10
0.0
 20
0.0
 30
0.0
  3
*Model_Space
  1

  0
ENDBLK
  5
21
330
1F
100
AcDbEntity
  8
0
100
AcDbBlockEnd
  0
BLOCK
  5
1C
330
1B
100
AcDbEntity
 67
     1
  8
0
100
AcDbBlockBegin
  2
*Paper_Space
 70
     0
 10
0.0
 20
0.0
 30
0.0
  3
*Paper_Space
  1

  0
ENDBLK
  5
1D
330
1B
100
AcDbEntity
 67
     1
  8
0
100
AcDbBlockEnd
  0
BLOCK
  5
24
330
23
100
AcDbEntity
  8
0
100
AcDbBlockBegin
  2
*Paper_Space0
 70
     0
 10
0.0
 20
0.0
 30
0.0
  3
*Paper_Space0
  1

  0
ENDBLK
  5
25
330
23
100
AcDbEntity
  8
0
100
AcDbBlockEnd
  0
ENDSEC
  0
SECTION
  2
ENTITIES
  0
LINE
  5
73
330
1F
100
AcDbEntity
  8
1
  6
Continuous
 62
    30
370
    18
100
AcDbLine
 10
332.727352
 20
513.433153
 30
0.0
 11
347.001478
 21
513.433153
 31
0.0
  0
LINE
  5
75
330
1F
100
AcDbEntity
  8
1
  6
Continuous
 62
    30
370
    18
100
AcDbLine
 10
355.771968
 20
519.283153
 30
0.0
 11
360.727905
 21
519.283153
 31
0.0
  0
LINE
  5
76
330
1F
100
AcDbEntity
  8
1
  6
Continuous
 62
    30
370
    18
100
AcDbLine
 10
468.726799
 20
519.283153
 30
0.0
 11
473.682736
 21
519.283153
 31
0.0
  0
LINE
  5
77
330
1F
100
AcDbEntity
  8
1
  6
Continuous
 62
    30
370
    18
100
AcDbLine
 10
482.453226
 20
513.433153
 30
0.0
 11
496.727352
 21
513.433153
 31
0.0
  0
LINE
  5
78
330
1F
100
AcDbEntity
  8
1
  6
Continuous
 62
   252
370
    18
100
AcDbLine
 10
430.604484
 20
613.583153
 30
0.0
 11
446.481616
 21
613.583153
 31
0.0
  0
LINE
  5
79
330
1F
100
AcDbEntity
  8
1
  6
Continuous
 62
   252
370
    18
100
AcDbLine
 10
435.727352
 20
438.583153
 30
0.0
 11
393.727352
 21
438.583153
 31
0.0
  0
LINE
  5
7A
330
1F
100
AcDbEntity
  8
1
  6
Continuous
 62
   252
370
    18
100
AcDbLine
 10
360.727352
 20
577.183153
 30
0.0
 11
468.727352
 21
577.183153
 31
0.0
  0
LINE
  5
7B
330
1F
100
AcDbEntity
  8
1
  6
Continuous
 62
   252
370
    18
100
AcDbLine
 10
360.727352
 20
519.283153
 30
0.0
 11
468.727352
 21
519.283153
 31
0.0
  0
LINE
  5
7C
330
1F
100
AcDbEntity
  8
1
  6
Continuous
 62
   252
370
    18
100
AcDbLine
 10
361.727352
 20
594.583153
 30
0.0
 11
467.727352
 21
594.583153
 31
0.0
  0
LINE
  5
7D
330
1F
100
AcDbEntity
  8
1
  6
Continuous
 62
   252
370
    18
100
AcDbLine
 10
430.604484
 20
613.583153
 30
0.0
 11
430.604484
 21
594.583153
 31
0.0
  0
LINE
  5
7E
330
1F
100
AcDbEntity
  8
1
  6
Continuous
 62
   252
370
    18
100
AcDbLine
 10
382.973087
 20
613.583153
 30
0.0
 11
382.973087
 21
594.583153
 31
0.0
  0
LINE
  5
7F
330
1F
100
AcDbEntity
  8
1
  6
Continuous
 62
   252
370
    18
100
AcDbLine
 10
468.727352
 20
507.583153
 30
0.0
 11
360.727352
 21
507.583153
 31
0.0
  0
LINE
  5
80
330
1F
100
AcDbEntity
  8
1
  6
Continuous
 62
   252
370
    18
100
AcDbLine
 10
398.850219
 20
613.583153
 30
0.0
 11
398.850219
 21
594.583153
 31
0.0
  0
LINE
  5
81
330
1F
100
AcDbEntity
  8
1
  6
Continuous
 62
   252
370
    18
100
AcDbLine
 10
398.850219
 20
613.583153
 30
0.0
 11
430.604484
 21
613.583153
 31
0.0
  0
LINE
  5
82
330
1F
100
AcDbEntity
  8
1
  6
Continuous
 62
   252
370
    18
100
AcDbLine
 10
446.481616
 20
613.583153
 30
0.0
 11
446.481616
 21
594.583153
 31
0.0
  0
LINE
  5
83
330
1F
100
AcDbEntity
  8
1
  6
Continuous
 62
   252
370
    18
100
AcDbLine
 10
355.622686
 20
548.233153
 30
0.0
 11
473.832018
 21
548.233153
 31
0.0
  0
LINE
  5
84
330
1F
100
AcDbEntity
  8
1
  6
Continuous
 62
   252
370
    18
100
AcDbLine
 10
382.973087
 20
613.583153
 30
0.0
 11
398.850219
 21
613.583153
 31
0.0
  0
LINE
  5
85
330
1F
100
AcDbEntity
  8
1
  6
Continuous
 62
    30
370
    13
100
AcDbLine
 10
323.227352
 20
675.083153
 30
0.0
 11
332.727352
 21
675.083153
 31
0.0
  0
LINE
  5
86
330
1F
100
AcDbEntity
  8
1
  6
Continuous
 62
    30
370
    13
100
AcDbLine
 10
506.227352
 20
675.083153
 30
0.0
 11
496.727352
 21
675.083153
 31
0.0
  0
LINE
  5
87
330
1F
100
AcDbEntity
  8
1
  6
Continuous
 62
    30
370
    13
100
AcDbLine
 10
356.085902
 20
531.585448
 30
0.0
 11
347.826272
 21
532.433153
 31
0.0
  0
LINE
  5
88
330
1F
100
AcDbEntity
  8
1
  6
Continuous
 62
    30
370
    18
100
AcDbLine
 10
473.682736
 20
519.283153
 30
0.0
 11
473.368801
 21
531.585448
 31
0.0
  0
LINE
  5
89
330
1F
100
AcDbEntity
  8
1
  6
Continuous
 62
    30
370
    18
100
AcDbLine
 10
356.406643
 20
544.154476
 30
0.0
 11
356.085902
 21
531.585448
 31
0.0
  0
LINE
  5
8A
330
1F
100
AcDbEntity
  8
1
  6
Continuous
 62
    30
370
    13
100
AcDbLine
 10
356.406643
 20
544.154476
 30
0.0
 11
346.909734
 21
544.396822
 31
0.0
  0
LINE
  5
8B
330
1F
100
AcDbEntity
  8
1
  6
Continuous
 62
    30
370
    13
100
AcDbLine
 10
506.227352
 20
532.433153
 30
0.0
 11
496.727352
 21
532.433153
 31
0.0
  0
LINE
  5
8C
330
1F
100
AcDbEntity
  8
1
  6
Continuous
 62
    30
370
    13
100
AcDbLine
 10
481.628432
 20
532.433153
 30
0.0
 11
473.368801
 21
531.585448
 31
0.0
  0
LINE
  5
8D
330
1F
100
AcDbEntity
  8
1
  6
Continuous
 62
    30
370
    13
100
AcDbLine
 10
481.628432
 20
532.433153
 30
0.0
 11
496.727352
 21
532.433153
 31
0.0
  0
LINE
  5
8E
330
1F
100
AcDbEntity
  8
1
  6
Continuous
 62
    30
370
    18
100
AcDbLine
 10
473.368801
 20
531.585448
 30
0.0
 11
473.048061
 21
544.154476
 31
0.0
  0
LINE
  5
8F
330
1F
100
AcDbEntity
  8
1
  6
Continuous
 62
    30
370
    13
100
AcDbLine
 10
473.048061
 20
544.154476
 30
0.0
 11
482.544969
 21
544.396822
 31
0.0
  0
LINE
  5
90
330
1F
100
AcDbEntity
  8
1
  6
Continuous
 62
    30
370
    18
100
AcDbLine
 10
506.227352
 20
532.433153
 30
0.0
 11
506.227352
 21
522.933153
 31
0.0
  0
LINE
  5
91
330
1F
100
AcDbEntity
  8
1
  6
Continuous
 62
    30
370
    13
100
AcDbLine
 10
346.909734
 20
544.396822
 30
0.0
 11
350.248342
 21
675.22855
 31
0.0
  0
LINE
  5
92
330
1F
100
AcDbEntity
  8
1
  6
Continuous
 62
    30
370
    13
100
AcDbLine
 10
496.727352
 20
532.433153
 30
0.0
 11
496.727352
 21
513.433153
 31
0.0
  0
LINE
  5
93
330
1F
100
AcDbEntity
  8
1
  6
Continuous
 62
   252
370
    18
100
AcDbLine
 10
468.727352
 20
507.583153
 30
0.0
 11
468.727352
 21
519.283153
 31
0.0
  0
LINE
  5
94
330
1F
100
AcDbEntity
  8
1
  6
Continuous
 62
   252
370
    18
100
AcDbLine
 10
472.793697
 20
554.121764
 30
0.0
 11
468.727352
 21
577.183153
 31
0.0
  0
LINE
  5
95
330
1F
100
AcDbEntity
  8
1
  6
Continuous
 62
   252
370
    18
100
AcDbLine
 10
361.727352
 20
594.583153
 30
0.0
 11
361.727352
 21
577.183153
 31
0.0
  0
LINE
  5
96
330
1F
100
AcDbEntity
  8
1
  6
Continuous
 62
   252
370
    18
100
AcDbLine
 10
360.727352
 20
577.183153
 30
0.0
 11
356.661007
 21
554.121764
 31
0.0
  0
LINE
  5
97
330
1F
100
AcDbEntity
  8
1
  6
Continuous
 62
   252
370
    18
100
AcDbLine
 10
393.727352
 20
507.583153
 30
0.0
 11
393.727352
 21
438.583153
 31
0.0
  0
LINE
  5
98
330
1F
100
AcDbEntity
  8
1
  6
Continuous
 62
   252
370
    18
100
AcDbLine
 10
360.727352
 20
519.283153
 30
0.0
 11
360.727352
 21
507.583153
 31
0.0
  0
LINE
  5
99
330
1F
100
AcDbEntity
  8
1
  6
Continuous
 62
   252
370
    18
100
AcDbLine
 10
435.727352
 20
438.583153
 30
0.0
 11
435.727352
 21
507.583153
 31
0.0
  0
LINE
  5
9A
330
1F
100
AcDbEntity
  8
1
  6
Continuous
 62
   252
370
    18
100
AcDbLine
 10
467.727352
 20
577.183153
 30
0.0
 11
467.727352
 21
594.583153
 31
0.0
  0
LINE
  5
9B
330
1F
100
AcDbEntity
  8
1
  6
Continuous
 62
    30
370
    18
100
AcDbLine
 10
506.227352
 20
675.083153
 30
0.0
 11
506.227352
 21
532.433153
 31
0.0
  0
LINE
  5
9C
330
1F
100
AcDbEntity
  8
1
  6
Continuous
 62
    30
370
    13
100
AcDbLine
 10
323.227352
 20
532.433153
 30
0.0
 11
332.727352
 21
532.433153
 31
0.0
  0
LINE
  5
9D
330
1F
100
AcDbEntity
  8
1
  6
Continuous
 62
    30
370
    18
100
AcDbLine
 10
323.227352
 20
522.933153
 30
0.0
 11
323.227352
 21
532.433153
 31
0.0
  0
LINE
  5
9E
330
1F
100
AcDbEntity
  8
1
  6
Continuous
 62
    30
370
    18
100
AcDbLine
 10
405.112105
 20
746.1874
 30
0.0
 11
399.385548
 21
746.1874
 31
0.0
  0
LINE
  5
9F
330
1F
100
AcDbEntity
  8
1
  6
Continuous
 62
    30
370
    13
100
AcDbLine
 10
496.727352
 20
532.433153
 30
0.0
 11
496.727352
 21
675.083153
 31
0.0
  0
LINE
  5
A0
330
1F
100
AcDbEntity
  8
1
  6
Continuous
 62
    30
370
    18
100
AcDbLine
 10
323.227352
 20
532.433153
 30
0.0
 11
323.227352
 21
675.083153
 31
0.0
  0
LINE
  5
A1
330
1F
100
AcDbEntity
  8
1
  6
Continuous
 62
    30
370
    18
100
AcDbLine
 10
413.870158
 20
750.200895
 30
0.0
 11
412.066292
 21
743.665336
 31
0.0
  0
LINE
  5
A2
330
1F
100
AcDbEntity
  8
1
  6
Continuous
 62
    30
370
    18
100
AcDbLine
 10
355.771969
 20
519.283192
 30
0.0
 11
356.085902
 21
531.585448
 31
0.0
  0
LINE
  5
A3
330
1F
100
AcDbEntity
  8
1
  6
Continuous
 62
    30
370
    18
100
AcDbLine
 10
440.641811
 20
750.200895
 30
0.0
 11
440.641811
 21
749.008454
 31
0.0
  0
LINE
  5
A4
330
1F
100
AcDbEntity
  8
1
  6
Continuous
 62
    30
370
    18
100
AcDbLine
 10
388.791418
 20
748.916998
 30
0.0
 11
388.791418
 21
750.200895
 31
0.0
  0
LINE
  5
A5
330
1F
100
AcDbEntity
  8
1
  6
Continuous
 62
    30
370
    18
100
AcDbLine
 10
435.305376
 20
739.16994
 30
0.0
 11
433.637516
 21
739.423202
 31
0.0
  0
LINE
  5
A6
330
1F
100
AcDbEntity
  8
1
  6
Continuous
 62
    30
370
    18
100
AcDbLine
 10
388.945319
 20
741.291007
 30
0.0
 11
388.991847
 21
741.291007
 31
0.0
  0
LINE
  5
A7
330
1F
100
AcDbEntity
  8
1
  6
Continuous
 62
    30
370
    13
100
AcDbLine
 10
350.248342
 20
675.22855
 30
0.0
 11
359.745251
 21
674.986205
 31
0.0
  0
LINE
  5
A8
330
1F
100
AcDbEntity
  8
1
  6
Continuous
 62
    30
370
    18
100
AcDbLine
 10
388.945319
 20
736.422754
 30
0.0
 11
388.945319
 21
741.291007
 31
0.0
  0
LINE
  5
A9
330
1F
100
AcDbEntity
  8
1
  6
Continuous
 62
    30
370
    18
100
AcDbLine
 10
473.048061
 20
544.154476
 30
0.0
 11
469.709453
 21
674.986205
 31
0.0
  0
LINE
  5
AA
330
1F
100
AcDbEntity
  8
1
  6
Continuous
 62
    30
370
    13
100
AcDbLine
 10
479.206361
 20
675.22855
 30
0.0
 11
482.544969
 21
544.396822
 31
0.0
  0
LINE
  5
AB
330
1F
100
AcDbEntity
  8
1
  6
Continuous
 62
    30
370
    13
100
AcDbLine
 10
332.727352
 20
513.433153
 30
0.0
 11
332.727352
 21
532.433153
 31
0.0
  0
LINE
  5
AC
330
1F
100
AcDbEntity
  8
1
  6
Continuous
 62
    30
370
    18
100
AcDbLine
 10
388.830788
 20
748.916998
 30
0.0
 11
388.791418
 21
748.916998
 31
0.0
  0
LINE
  5
AD
330
1F
100
AcDbEntity
  8
1
  6
Continuous
 62
    30
370
    18
100
AcDbLine
 10
440.641811
 20
749.008454
 30
0.0
 11
440.602441
 21
749.008454
 31
0.0
  0
LINE
  5
AE
330
1F
100
AcDbEntity
  8
1
  6
Continuous
 62
    30
370
    18
100
AcDbLine
 10
388.791418
 20
750.200895
 30
0.0
 11
387.227352
 21
750.200895
 31
0.0
  0
LINE
  5
AF
330
1F
100
AcDbEntity
  8
1
  6
Continuous
 62
    30
370
    18
100
AcDbLine
 10
387.227352
 20
736.422754
 30
0.0
 11
388.945319
 21
736.422754
 31
0.0
  0
LINE
  5
B0
330
1F
100
AcDbEntity
  8
1
  6
Continuous
 62
    30
370
    13
100
AcDbLine
 10
469.709453
 20
674.986205
 30
0.0
 11
479.206361
 21
675.22855
 31
0.0
  0
LINE
  5
B1
330
1F
100
AcDbEntity
  8
1
  6
Continuous
 62
    30
370
    13
100
AcDbLine
 10
332.727352
 20
532.433153
 30
0.0
 11
347.826272
 21
532.433153
 31
0.0
  0
LINE
  5
B2
330
1F
100
AcDbEntity
  8
1
  6
Continuous
 62
    30
370
    18
100
AcDbLine
 10
442.227352
 20
750.200895
 30
0.0
 11
440.641811
 21
750.200895
 31
0.0
  0
LINE
  5
B3
330
1F
100
AcDbEntity
  8
1
  6
Continuous
 62
    30
370
    18
100
AcDbLine
 10
387.227352
 20
750.200895
 30
0.0
 11
387.227352
 21
736.422754
 31
0.0
  0
LINE
  5
B4
330
1F
100
AcDbEntity
  8
1
  6
Continuous
 62
    30
370
    18
100
AcDbLine
 10
359.745251
 20
674.986205
 30
0.0
 11
356.406643
 21
544.154476
 31
0.0
  0
LINE
  5
B5
330
1F
100
AcDbEntity
  8
1
  6
Continuous
 62
    30
370
    18
100
AcDbLine
 10
410.84582
 20
740.24982
 30
0.0
 11
412.638948
 21
740.24982
 31
0.0
  0
LINE
  5
B6
330
1F
100
AcDbEntity
  8
1
  6
Continuous
 62
    30
370
    18
100
AcDbLine
 10
419.968941
 20
750.200895
 30
0.0
 11
417.67116
 21
742.539728
 31
0.0
  0
LINE
  5
B7
330
1F
100
AcDbEntity
  8
1
  6
Continuous
 62
    30
370
    18
100
AcDbLine
 10
414.65398
 20
747.910987
 30
0.0
 11
414.69335
 21
747.910987
 31
0.0
  0
LINE
  5
B8
330
1F
100
AcDbEntity
  8
1
  6
Continuous
 62
    30
370
    18
100
AcDbLine
 10
422.796428
 20
747.358735
 30
0.0
 11
424.475025
 21
747.144167
 31
0.0
  0
LINE
  5
B9
330
1F
100
AcDbEntity
  8
1
  6
Continuous
 62
    30
370
    18
100
AcDbLine
 10
417.67116
 20
742.539728
 30
0.0
 11
417.63179
 21
742.539728
 31
0.0
  0
LINE
  5
BA
330
1F
100
AcDbEntity
  8
1
  6
Continuous
 62
    30
370
    13
100
AcDbLine
 10
332.727352
 20
675.083153
 30
0.0
 11
332.727352
 21
532.433153
 31
0.0
  0
LINE
  5
BB
330
1F
100
AcDbEntity
  8
1
  6
Continuous
 62
    30
370
    18
100
AcDbLine
 10
430.040523
 20
740.24982
 30
0.0
 11
431.844388
 21
740.24982
 31
0.0
  0
LINE
  5
BC
330
1F
100
AcDbEntity
  8
1
  6
Continuous
 62
    30
370
    18
100
AcDbLine
 10
417.001869
 20
744.987925
 30
0.0
 11
415.638232
 21
750.200895
 31
0.0
  0
LINE
  5
BD
330
1F
100
AcDbEntity
  8
1
  6
Continuous
 62
    30
370
    18
100
AcDbLine
 10
412.066292
 20
743.665336
 30
0.0
 11
411.722699
 21
742.321642
 31
0.0
  0
LINE
  5
BE
330
1F
100
AcDbEntity
  8
1
  6
Continuous
 62
    30
370
    18
100
AcDbLine
 10
407.735584
 20
750.200895
 30
0.0
 11
410.84582
 21
740.24982
 31
0.0
  0
LINE
  5
BF
330
1F
100
AcDbEntity
  8
1
  6
Continuous
 62
    30
370
    18
100
AcDbLine
 10
412.638948
 20
740.24982
 30
0.0
 11
414.65398
 21
747.910987
 31
0.0
  0
LINE
  5
C0
330
1F
100
AcDbEntity
  8
1
  6
Continuous
 62
    30
370
    18
100
AcDbLine
 10
415.083472
 20
746.226093
 30
0.0
 11
416.686908
 21
740.24982
 31
0.0
  0
LINE
  5
C1
330
1F
100
AcDbEntity
  8
1
  6
Continuous
 62
    30
370
    18
100
AcDbLine
 10
418.469299
 20
740.24982
 30
0.0
 11
421.647538
 21
750.200895
 31
0.0
  0
LINE
  5
C2
330
1F
100
AcDbEntity
  8
1
  6
Continuous
 62
    30
370
    18
100
AcDbLine
 10
421.647538
 20
750.200895
 30
0.0
 11
419.968941
 21
750.200895
 31
0.0
  0
LINE
  5
C3
330
1F
100
AcDbEntity
  8
1
  6
Continuous
 62
    30
370
    18
100
AcDbLine
 10
415.638232
 20
750.200895
 30
0.0
 11
413.870158
 21
750.200895
 31
0.0
  0
LINE
  5
C4
330
1F
100
AcDbEntity
  8
1
  6
Continuous
 62
    30
370
    18
100
AcDbLine
 10
406.819335
 20
743.243233
 30
0.0
 11
405.054839
 21
743.457802
 31
0.0
  0
LINE
  5
C5
330
1F
100
AcDbEntity
  8
1
  6
Continuous
 62
    30
370
    18
100
AcDbLine
 10
411.722699
 20
742.321642
 30
0.0
 11
409.517974
 21
750.200895
 31
0.0
  0
LINE
  5
C6
330
1F
100
AcDbEntity
  8
1
  6
Continuous
 62
    30
370
    18
100
AcDbLine
 10
409.517974
 20
750.200895
 30
0.0
 11
407.735584
 21
750.200895
 31
0.0
  0
LINE
  5
C7
330
1F
100
AcDbEntity
  8
1
  6
Continuous
 62
    30
370
    18
100
AcDbLine
 10
416.686908
 20
740.24982
 30
0.0
 11
418.469299
 21
740.24982
 31
0.0
  0
LINE
  5
C8
330
1F
100
AcDbEntity
  8
1
  6
Continuous
 62
    30
370
    18
100
AcDbLine
 10
399.288912
 20
744.797978
 30
0.0
 11
406.8766
 21
744.797978
 31
0.0
  0
LINE
  5
C9
330
1F
100
AcDbEntity
  8
1
  6
Continuous
 62
    30
370
    18
100
AcDbLine
 10
428.093493
 20
746.226093
 30
0.0
 11
426.490057
 21
745.990419
 31
0.0
  0
LINE
  5
CA
330
1F
100
AcDbEntity
  8
1
  6
Continuous
 62
   252
370
    18
100
AcDbLine
 10
659.110799
 20
594.583153
 30
0.0
 11
659.110799
 21
577.183153
 31
0.0
  0
LINE
  5
CB
330
1F
100
AcDbEntity
  8
1
  6
Continuous
 62
    30
370
    18
100
AcDbLine
 10
721.610799
 20
766.583153
 30
0.0
 11
702.610799
 21
766.583153
 31
0.0
  0
LINE
  5
CC
330
1F
100
AcDbEntity
  8
1
  6
Continuous
 62
   252
370
    18
100
AcDbLine
 10
658.110799
 20
577.183153
 30
0.0
 11
653.006133
 21
548.233153
 31
0.0
  0
LINE
  5
CD
330
1F
100
AcDbEntity
  8
1
  6
Continuous
 62
   252
370
    18
100
AcDbLine
 10
733.110799
 20
438.583153
 30
0.0
 11
733.110799
 21
507.583153
 31
0.0
  0
LINE
  5
CE
330
1F
100
AcDbEntity
  8
1
  6
Continuous
 62
   252
370
    18
100
AcDbLine
 10
766.110799
 20
519.283153
 30
0.0
 11
771.215465
 21
548.233153
 31
0.0
  0
LINE
  5
CF
330
1F
100
AcDbEntity
  8
1
  6
Continuous
 62
   252
370
    18
100
AcDbLine
 10
765.110799
 20
577.183153
 30
0.0
 11
765.110799
 21
594.583153
 31
0.0
  0
LINE
  5
D0
330
1F
100
AcDbEntity
  8
1
  6
Continuous
 62
   252
370
    18
100
AcDbLine
 10
771.215465
 20
548.233153
 30
0.0
 11
766.110799
 21
577.183153
 31
0.0
  0
LINE
  5
D1
330
1F
100
AcDbEntity
  8
1
  6
Continuous
 62
   252
370
    18
100
AcDbLine
 10
658.110799
 20
519.283153
 30
0.0
 11
658.110799
 21
507.583153
 31
0.0
  0
LINE
  5
D2
330
1F
100
AcDbEntity
  8
1
  6
Continuous
 62
   252
370
    18
100
AcDbLine
 10
691.110799
 20
507.583153
 30
0.0
 11
691.110799
 21
438.583153
 31
0.0
  0
LINE
  5
D3
330
1F
100
AcDbEntity
  8
1
  6
Continuous
 62
   252
370
    18
100
AcDbLine
 10
766.110799
 20
507.583153
 30
0.0
 11
766.110799
 21
519.283153
 31
0.0
  0
LINE
  5
D4
330
1F
100
AcDbEntity
  8
1
  6
Continuous
 62
   252
370
    18
100
AcDbLine
 10
653.006133
 20
548.233153
 30
0.0
 11
658.110799
 21
519.283153
 31
0.0
  0
LINE
  5
D5
330
1F
100
AcDbEntity
  8
1
  6
Continuous
 62
    30
370
    18
100
AcDbLine
 10
694.110799
 20
755.36289
 30
0.0
 11
694.110799
 21
756.471097
 31
0.0
  0
LINE
  5
D6
330
1F
100
AcDbEntity
  8
1
  6
Continuous
 62
    30
370
    13
100
AcDbLine
 10
721.610799
 20
675.083153
 30
0.0
 11
731.110799
 21
675.083153
 31
0.0
  0
LINE
  5
D7
330
1F
100
AcDbEntity
  8
1
  6
Continuous
 62
    30
370
    13
100
AcDbLine
 10
721.610799
 20
675.083153
 30
0.0
 11
702.610799
 21
675.083153
 31
0.0
  0
LINE
  5
D8
330
1F
100
AcDbEntity
  8
1
  6
Continuous
 62
    30
370
    13
100
AcDbLine
 10
693.110799
 20
675.083153
 30
0.0
 11
702.610799
 21
675.083153
 31
0.0
  0
LINE
  5
D9
330
1F
100
AcDbEntity
  8
1
  6
Continuous
 62
    30
370
    18
100
AcDbLine
 10
693.110799
 20
754.005829
 30
0.0
 11
693.110799
 21
753.037677
 31
0.0
  0
LINE
  5
DA
330
1F
100
AcDbEntity
  8
1
  6
Continuous
 62
    30
370
    18
100
AcDbLine
 10
693.110799
 20
757.083153
 30
0.0
 11
693.110799
 21
755.327594
 31
0.0
  0
LINE
  5
DB
330
1F
100
AcDbEntity
  8
1
  6
Continuous
 62
    30
370
    18
100
AcDbLine
 10
693.110799
 20
754.005829
 30
0.0
 11
693.110799
 21
754.380983
 31
0.0
  0
LINE
  5
DC
330
1F
100
AcDbEntity
  8
1
  6
Continuous
 62
    30
370
    18
100
AcDbLine
 10
693.110799
 20
755.327594
 30
0.0
 11
693.110799
 21
754.380952
 31
0.0
  0
LINE
  5
DD
330
1F
100
AcDbEntity
  8
1
  6
Continuous
 62
    30
370
    13
100
AcDbLine
 10
693.110799
 20
532.433153
 30
0.0
 11
702.610799
 21
532.433153
 31
0.0
  0
LINE
  5
DE
330
1F
100
AcDbEntity
  8
1
  6
Continuous
 62
    30
370
    18
100
AcDbLine
 10
693.110799
 20
675.083153
 30
0.0
 11
693.110799
 21
753.037684
 31
0.0
  0
LINE
  5
DF
330
1F
100
AcDbEntity
  8
1
  6
Continuous
 62
    30
370
    18
100
AcDbLine
 10
731.110799
 20
675.083153
 30
0.0
 11
731.110799
 21
532.433153
 31
0.0
  0
LINE
  5
E0
330
1F
100
AcDbEntity
  8
1
  6
Continuous
 62
    30
370
    18
100
AcDbLine
 10
693.110799
 20
532.433153
 30
0.0
 11
693.110799
 21
675.083153
 31
0.0
  0
LINE
  5
E1
330
1F
100
AcDbEntity
  8
1
  6
Continuous
 62
   252
370
    18
100
AcDbLine
 10
653.006133
 20
548.233153
 30
0.0
 11
693.108564
 21
548.233153
 31
0.0
  0
LINE
  5
E2
330
1F
100
AcDbEntity
  8
1
  6
Continuous
 62
   252
370
    18
100
AcDbLine
 10
731.113034
 20
548.233153
 30
0.0
 11
771.215465
 21
548.233153
 31
0.0
  0
LINE
  5
E3
330
1F
100
AcDbEntity
  8
1
  6
Continuous
 62
   252
370
    18
100
AcDbLine
 10
659.110799
 20
594.583153
 30
0.0
 11
693.109202
 21
594.583153
 31
0.0
  0
LINE
  5
E4
330
1F
100
AcDbEntity
  8
1
  6
Continuous
 62
   252
370
    18
100
AcDbLine
 10
731.112396
 20
594.583153
 30
0.0
 11
765.110799
 21
594.583153
 31
0.0
  0
LINE
  5
E5
330
1F
100
AcDbEntity
  8
1
  6
Continuous
 62
   252
370
    18
100
AcDbLine
 10
684.610799
 20
613.583153
 30
0.0
 11
693.110877
 21
613.583153
 31
0.0
  0
LINE
  5
E6
330
1F
100
AcDbEntity
  8
1
  6
Continuous
 62
   252
370
    18
100
AcDbLine
 10
739.610799
 20
613.583153
 30
0.0
 11
739.610799
 21
594.583153
 31
0.0
  0
LINE
  5
E7
330
1F
100
AcDbEntity
  8
1
  6
Continuous
 62
   252
370
    18
100
AcDbLine
 10
731.110721
 20
613.583153
 30
0.0
 11
739.610799
 21
613.583153
 31
0.0
  0
LINE
  5
E8
330
1F
100
AcDbEntity
  8
1
  6
Continuous
 62
   252
370
    18
100
AcDbLine
 10
691.110799
 20
438.583153
 30
0.0
 11
733.110799
 21
438.583153
 31
0.0
  0
LINE
  5
E9
330
1F
100
AcDbEntity
  8
1
  6
Continuous
 62
    30
370
    18
100
AcDbLine
 10
731.110799
 20
757.083153
 30
0.0
 11
731.110799
 21
675.083153
 31
0.0
  0
LINE
  5
EA
330
1F
100
AcDbEntity
  8
1
  6
Continuous
 62
   252
370
    18
100
AcDbLine
 10
658.110799
 20
519.283153
 30
0.0
 11
698.414707
 21
519.283153
 31
0.0
  0
LINE
  5
EB
330
1F
100
AcDbEntity
  8
1
  6
Continuous
 62
   252
370
    18
100
AcDbLine
 10
725.817146
 20
519.283153
 30
0.0
 11
766.110799
 21
519.283153
 31
0.0
  0
LINE
  5
EC
330
1F
100
AcDbEntity
  8
1
  6
Continuous
 62
   252
370
    18
100
AcDbLine
 10
658.110799
 20
507.583153
 30
0.0
 11
766.110799
 21
507.583153
 31
0.0
  0
LINE
  5
ED
330
1F
100
AcDbEntity
  8
1
  6
Continuous
 62
   252
370
    18
100
AcDbLine
 10
684.610799
 20
613.583153
 30
0.0
 11
684.610799
 21
594.583153
 31
0.0
  0
LINE
  5
EE
330
1F
100
AcDbEntity
  8
1
  6
Continuous
 62
    30
370
    13
100
AcDbLine
 10
702.610799
 20
675.083153
 30
0.0
 11
702.610799
 21
532.433153
 31
0.0
  0
LINE
  5
EF
330
1F
100
AcDbEntity
  8
1
  6
Continuous
 62
    30
370
    13
100
AcDbLine
 10
702.610799
 20
766.583153
 30
0.0
 11
702.610799
 21
675.083153
 31
0.0
  0
LINE
  5
F0
330
1F
100
AcDbEntity
  8
1
  6
Continuous
 62
    30
370
    13
100
AcDbLine
 10
721.610799
 20
532.433153
 30
0.0
 11
721.610799
 21
675.083153
 31
0.0
  0
LINE
  5
F1
330
1F
100
AcDbEntity
  8
1
  6
Continuous
 62
    30
370
    13
100
AcDbLine
 10
721.610799
 20
766.583153
 30
0.0
 11
721.610799
 21
675.083153
 31
0.0
  0
LINE
  5
F2
330
1F
100
AcDbEntity
  8
1
  6
Continuous
 62
    30
370
    13
100
AcDbLine
 10
731.110799
 20
532.433153
 30
0.0
 11
721.610799
 21
532.433153
 31
0.0
  0
LINE
  5
F3
330
1F
100
AcDbEntity
  8
1
  6
Continuous
 62
   252
370
    18
100
AcDbLine
 10
658.110799
 20
577.183153
 30
0.0
 11
693.10749
 21
577.183153
 31
0.0
  0
LINE
  5
F4
330
1F
100
AcDbEntity
  8
1
  6
Continuous
 62
   252
370
    18
100
AcDbLine
 10
731.114107
 20
577.183153
 30
0.0
 11
766.110799
 21
577.183153
 31
0.0
  0
LINE
  5
F5
330
1F
100
AcDbEntity
  8
1
  6
Continuous
 62
    30
370
    18
100
AcDbLine
 10
431.604276
 20
287.3965
 30
0.0
 11
435.604475
 21
287.3965
 31
0.0
  0
LINE
  5
F6
330
1F
100
AcDbEntity
  8
1
  6
Continuous
 62
    30
370
    18
100
AcDbLine
 10
397.850427
 20
325.3965
 30
0.0
 11
393.850228
 21
325.3965
 31
0.0
  0
LINE
  5
F7
330
1F
100
AcDbEntity
  8
1
  6
Continuous
 62
   252
370
    18
100
AcDbLine
 10
430.604484
 20
278.8965
 30
0.0
 11
435.512006
 21
287.396578
 31
0.0
  0
LINE
  5
F8
330
1F
100
AcDbEntity
  8
1
  6
Continuous
 62
   252
370
    18
100
AcDbLine
 10
430.604484
 20
333.8965
 30
0.0
 11
398.850219
 21
333.8965
 31
0.0
  0
LINE
  5
F9
330
1F
100
AcDbEntity
  8
1
  6
Continuous
 62
   252
370
    18
100
AcDbLine
 10
393.942697
 20
287.396578
 30
0.0
 11
398.850219
 21
278.8965
 31
0.0
  0
LINE
  5
FA
330
1F
100
AcDbEntity
  8
1
  6
Continuous
 62
   252
370
    18
100
AcDbLine
 10
398.850219
 20
278.8965
 30
0.0
 11
430.604484
 21
278.8965
 31
0.0
  0
LINE
  5
FB
330
1F
100
AcDbEntity
  8
1
  6
Continuous
 62
   252
370
    18
100
AcDbLine
 10
435.512006
 20
325.396422
 30
0.0
 11
430.604484
 21
333.8965
 31
0.0
  0
LINE
  5
FC
330
1F
100
AcDbEntity
  8
1
  6
Continuous
 62
   252
370
    18
100
AcDbLine
 10
398.850219
 20
333.8965
 30
0.0
 11
393.942697
 21
325.396422
 31
0.0
  0
LINE
  5
FD
330
1F
100
AcDbEntity
  8
1
  6
Continuous
 62
    30
370
    18
100
AcDbLine
 10
436.980694
 20
287.3965
 30
0.0
 11
435.604475
 21
287.3965
 31
0.0
  0
LINE
  5
FE
330
1F
100
AcDbEntity
  8
1
  6
Continuous
 62
    30
370
    18
100
AcDbLine
 10
392.474009
 20
325.3965
 30
0.0
 11
393.850228
 21
325.3965
 31
0.0
  0
LINE
  5
FF
330
1F
100
AcDbEntity
  8
1
  6
Continuous
 62
    30
370
    18
100
AcDbLine
 10
496.727352
 20
287.3965
 30
0.0
 11
440.165337
 21
287.3965
 31
0.0
  0
LINE
  5
100
330
1F
100
AcDbEntity
  8
1
  6
Continuous
 62
    30
370
    18
100
AcDbLine
 10
496.727352
 20
325.3965
 30
0.0
 11
397.850452
 21
325.3965
 31
0.0
  0
LINE
  5
101
330
1F
100
AcDbEntity
  8
1
  6
Continuous
 62
    30
370
    18
100
AcDbLine
 10
436.980694
 20
287.3965
 30
0.0
 11
440.165337
 21
287.3965
 31
0.0
  0
LINE
  5
102
330
1F
100
AcDbEntity
  8
1
  6
Continuous
 62
    30
370
    18
100
AcDbLine
 10
392.474009
 20
325.3965
 30
0.0
 11
389.289366
 21
325.3965
 31
0.0
  0
LINE
  5
103
330
1F
100
AcDbEntity
  8
1
  6
Continuous
 62
    30
370
    18
100
AcDbLine
 10
506.227352
 20
296.8965
 30
0.0
 11
506.227352
 21
315.8965
 31
0.0
  0
LINE
  5
104
330
1F
100
AcDbEntity
  8
1
  6
Continuous
 62
    30
370
    18
100
AcDbLine
 10
323.227352
 20
296.8965
 30
0.0
 11
323.227352
 21
315.8965
 31
0.0
  0
LINE
  5
105
330
1F
100
AcDbEntity
  8
1
  6
Continuous
 62
    30
370
    18
100
AcDbLine
 10
383.216131
 20
324.3965
 30
0.0
 11
386.200248
 21
324.3965
 31
0.0
  0
LINE
  5
106
330
1F
100
AcDbEntity
  8
1
  6
Continuous
 62
    30
370
    18
100
AcDbLine
 10
446.238572
 20
288.3965
 30
0.0
 11
443.254456
 21
288.3965
 31
0.0
  0
LINE
  5
107
330
1F
100
AcDbEntity
  8
1
  6
Continuous
 62
    30
370
    18
100
AcDbLine
 10
431.604251
 20
287.3965
 30
0.0
 11
332.727352
 21
287.3965
 31
0.0
  0
LINE
  5
108
330
1F
100
AcDbEntity
  8
1
  6
Continuous
 62
    30
370
    13
100
AcDbLine
 10
323.227352
 20
296.8965
 30
0.0
 11
506.227352
 21
296.8965
 31
0.0
  0
LINE
  5
109
330
1F
100
AcDbEntity
  8
1
  6
Continuous
 62
    30
370
    13
100
AcDbLine
 10
506.227352
 20
315.8965
 30
0.0
 11
323.227352
 21
315.8965
 31
0.0
  0
LINE
  5
10A
330
1F
100
AcDbEntity
  8
1
  6
Continuous
 62
    30
370
    18
100
AcDbLine
 10
332.727352
 20
325.3965
 30
0.0
 11
389.289366
 21
325.3965
 31
0.0
  0
ARC
  5
10B
330
1F
100
AcDbEntity
  8
1
  6
Continuous
 62
    30
370
    18
100
AcDbCircle
 10
332.727352
 20
522.933153
 30
0.0
 40
9.5
100
AcDbArc
 50
180.0
 51
270.0
  0
ARC
  5
10C
330
1F
100
AcDbEntity
  8
1
  6
Continuous
 62
    30
370
    18
100
AcDbCircle
 10
496.727352
 20
522.933153
 30
0.0
 40
9.5
100
AcDbArc
 50
270.0
 51
0.0
  0
ARC
  5
10D
330
1F
100
AcDbEntity
  8
1
  6
Continuous
 62
    30
370
    13
100
AcDbCircle
 10
414.727352
 20
675.083153
 30
0.0
 40
81.99999999999996
100
AcDbArc
 50
0.0
 51
71.927551
  0
ARC
  5
10E
330
1F
100
AcDbEntity
  8
1
  6
Continuous
 62
    30
370
    13
100
AcDbCircle
 10
414.727352
 20
675.083153
 30
0.0
 40
81.99999999999996
100
AcDbArc
 50
74.253466
 51
75.250171
  0
ARC
  5
10F
330
1F
100
AcDbEntity
  8
1
  6
Continuous
 62
    30
370
    18
100
AcDbCircle
 10
414.727352
 20
675.083153
 30
0.0
 40
91.49999999999996
100
AcDbArc
 50
360.0
 51
180.0
  0
ARC
  5
110
330
1F
100
AcDbEntity
  8
1
  6
Continuous
 62
    30
370
    18
100
AcDbCircle
 10
438.927352
 20
754.68732
 30
0.0
 40
2.0625
100
AcDbArc
 50
199.294258
 51
306.886759
  0
ARC
  5
111
330
1F
100
AcDbEntity
  8
1
  6
Continuous
 62
    30
370
    18
100
AcDbCircle
 10
414.727352
 20
675.083153
 30
0.0
 40
86.24264068711925
100
AcDbArc
 50
68.569112
 51
70.684042
  0
ARC
  5
112
330
1F
100
AcDbEntity
  8
1
  6
Continuous
 62
    30
370
    13
100
AcDbCircle
 10
414.727352
 20
673.583153
 30
0.0
 40
64.49999999999996
100
AcDbArc
 50
1.461776
 51
178.538224
  0
ARC
  5
113
330
1F
100
AcDbEntity
  8
1
  6
Continuous
 62
    30
370
    18
100
AcDbCircle
 10
433.564852
 20
754.68732
 30
0.0
 40
2.0625
100
AcDbArc
 50
161.914497
 51
351.458412
  0
ARC
  5
114
330
1F
100
AcDbEntity
  8
1
  6
Continuous
 62
    30
370
    18
100
AcDbCircle
 10
414.727352
 20
673.583153
 30
0.0
 40
54.99999999999996
100
AcDbArc
 50
1.461776
 51
178.538224
  0
ARC
  5
115
330
1F
100
AcDbEntity
  8
1
  6
Continuous
 62
    30
370
    13
100
AcDbCircle
 10
414.727352
 20
675.083153
 30
0.0
 40
81.99999999999996
100
AcDbArc
 50
78.122738
 51
180.0
  0
ARC
  5
116
330
1F
100
AcDbEntity
  8
1
  6
Continuous
 62
    30
370
    18
100
AcDbCircle
 10
721.610799
 20
757.083153
 30
0.0
 40
9.5
100
AcDbArc
 50
0.0
 51
90.0
  0
ARC
  5
117
330
1F
100
AcDbEntity
  8
1
  6
Continuous
 62
    30
370
    18
100
AcDbCircle
 10
702.610799
 20
757.083153
 30
0.0
 40
9.5
100
AcDbArc
 50
90.0
 51
180.0
  0
ARC
  5
118
330
1F
100
AcDbEntity
  8
1
  6
Continuous
 62
    30
370
    13
100
AcDbCircle
 10
712.110799
 20
532.433153
 30
0.0
 40
9.499999999999892
100
AcDbArc
 50
180.0
 51
0.0
  0
ARC
  5
119
330
1F
100
AcDbEntity
  8
1
  6
Continuous
 62
    30
370
    18
100
AcDbCircle
 10
712.110799
 20
532.433153
 30
0.0
 40
18.99999999999989
100
AcDbArc
 50
180.0
 51
0.0
  0
ARC
  5
11A
330
1F
100
AcDbEntity
  8
1
  6
Continuous
 62
   252
370
    18
100
AcDbCircle
 10
414.727352
 20
306.3965
 30
0.0
 40
53.99999999999999
100
AcDbArc
 50
20.59875
 51
159.395625
  0
ARC
  5
11B
330
1F
100
AcDbEntity
  8
1
  6
Continuous
 62
   252
370
    18
100
AcDbCircle
 10
414.727352
 20
306.3965
 30
0.0
 40
53.99999999999999
100
AcDbArc
 50
200.604375
 51
339.40125
  0
ARC
  5
11C
330
1F
100
AcDbEntity
  8
1
  6
Continuous
 62
   252
370
    18
100
AcDbCircle
 10
414.727352
 20
306.3965
 30
0.0
 40
52.99999999999999
100
AcDbArc
 50
21.00375
 51
158.990625
  0
ARC
  5
11D
330
1F
100
AcDbEntity
  8
1
  6
Continuous
 62
   252
370
    18
100
AcDbCircle
 10
414.727352
 20
306.3965
 30
0.0
 40
52.99999999999999
100
AcDbArc
 50
201.009374
 51
338.99625
  0
ARC
  5
11E
330
1F
100
AcDbEntity
  8
1
  6
Continuous
 62
   252
370
    18
100
AcDbCircle
 10
414.727352
 20
306.3965
 30
0.0
 40
59.10466609151007
100
AcDbArc
 50
18.748125
 51
161.24625
  0
ARC
  5
11F
330
1F
100
AcDbEntity
  8
1
  6
Continuous
 62
   252
370
    18
100
AcDbCircle
 10
414.727352
 20
306.3965
 30
0.0
 40
59.10466609151007
100
AcDbArc
 50
198.75375
 51
341.251875
  0
ARC
  5
120
330
1F
100
AcDbEntity
  8
1
  6
Continuous
 62
    30
370
    18
100
AcDbCircle
 10
332.727352
 20
315.8965
 30
0.0
 40
9.5
100
AcDbArc
 50
90.0
 51
180.0
  0
ARC
  5
121
330
1F
100
AcDbEntity
  8
1
  6
Continuous
 62
    30
370
    18
100
AcDbCircle
 10
496.727352
 20
296.8965
 30
0.0
 40
9.5
100
AcDbArc
 50
270.0
 51
0.0
  0
ARC
  5
122
330
1F
100
AcDbEntity
  8
1
  6
Continuous
 62
    30
370
    18
100
AcDbCircle
 10
496.727352
 20
315.8965
 30
0.0
 40
9.5
100
AcDbArc
 50
360.0
 51
90.0
  0
ARC
  5
123
330
1F
100
AcDbEntity
  8
1
  6
Continuous
 62
    30
370
    18
100
AcDbCircle
 10
332.727352
 20
296.8965
 30
0.0
 40
9.5
100
AcDbArc
 50
180.0
 51
270.0
  0
SPLINE
  5
124
330
1F
100
AcDbEntity
  8
1
  6
Continuous
 62
    30
370
    18
100
AcDbSpline
210
0.0
220
0.0
230
1.0
 70
     8
 71
     3
 72
    25
 73
    21
 74
     0
 42
0.000000001
 43
0.0000000001
 40
0.0
 40
0.0
 40
0.0
 40
0.0
 40
0.0078586226345076
 40
0.060454942808112
 40
0.115733932735275
 40
0.1725513568353534
 40
0.230403904394941
 40
0.2889645135585076
 40
0.3480245156023504
 40
0.4074468371874062
 40
0.4671387247037566
 40
0.527035549579994
 40
0.5870910152153345
 40
0.6472710852524919
 40
0.7075501168629856
 40
0.767908331116738
 40
0.8283301137547776
 40
0.8949885918901027
 40
0.9609418537770469
 40
1.0
 40
1.0
 40
1.0
 40
1.0
 10
473.6827711796839
 20
519.290808970296
 30
0.0
 10
473.6932003107968
 20
519.2634365113211
 30
0.0
 10
473.7748624552987
 20
519.0534937820868
 30
0.0
 10
473.962658913899
 20
518.6644737877476
 30
0.0
 10
474.2532291679234
 20
518.1237872904275
 30
0.0
 10
474.5924043347294
 20
517.5882636811356
 30
0.0
 10
474.9732766056393
 20
517.0665337069349
 30
0.0
 10
475.3946010137097
 20
516.5658007526172
 30
0.0
 10
475.8535589757604
 20
516.0911619186044
 30
0.0
 10
476.3476288248679
 20
515.6468341068413
 30
0.0
 10
476.8740660488
 20
515.2362774952045
 30
0.0
 10
477.430033771075
 20
514.8624368925385
 30
0.0
 10
478.0125655797594
 20
514.5278306458492
 30
0.0
 10
478.6185811301184
 20
514.2346307454011
 30
0.0
 10
479.244892462967
 20
513.9846466144473
 30
0.0
 10
479.8882179984324
 20
513.779539479974
 30
0.0
 10
480.5676128755129
 20
513.6146729452279
 30
0.0
 10
481.2781021773864
 20
513.4990974902404
 30
0.0
 10
481.9162642765166
 20
513.4409743740248
 30
0.0
 10
482.3074528832065
 20
513.4385130507167
 30
0.0
 10
482.4531851118776
 20
513.4415641180024
 30
0.0
  0
SPLINE
  5
125
330
1F
100
AcDbEntity
  8
1
  6
Continuous
 62
    30
370
    18
100
AcDbSpline
210
0.0
220
0.0
230
1.0
 70
     8
 71
     3
 72
    26
 73
    22
 74
     0
 42
0.000000001
 43
0.0000000001
 40
0.0
 40
0.0
 40
0.0
 40
0.0
 40
0.0192225802413924
 40
0.0822561359339475
 40
0.14459942316866
 40
0.2062651127959173
 40
0.2672579992429979
 40
0.3275754819040336
 40
0.3872077033218549
 40
0.4461373765573278
 40
0.5043393043531925
 40
0.5617795659420041
 40
0.6184143198372098
 40
0.6741881380702895
 40
0.7290317453085893
 40
0.7828589804867451
 40
0.8355627213099701
 40
0.8870094021099867
 40
0.9370316071302379
 40
0.9854180134121734
 40
1.0
 40
1.0
 40
1.0
 40
1.0
 10
347.0014643992656
 20
513.4404968090097
 30
0.0
 10
347.0731162778889
 20
513.4381839693316
 30
0.0
 10
347.3795580671928
 20
513.4330821953241
 30
0.0
 10
347.9180590899434
 20
513.4725249659521
 30
0.0
 10
348.6094322340028
 20
513.5629143712771
 30
0.0
 10
349.2847853002162
 20
513.7050601747056
 30
0.0
 10
349.9408836275186
 20
513.8926325878007
 30
0.0
 10
350.5747862453565
 20
514.1241408609249
 30
0.0
 10
351.1837478933396
 20
514.396578073314
 30
0.0
 10
351.7652625389591
 20
514.7071004738266
 30
0.0
 10
352.3170686344133
 20
515.0525898195167
 30
0.0
 10
352.8371643524503
 20
515.4297724370865
 30
0.0
 10
353.3238179683466
 20
515.8351901689757
 30
0.0
 10
353.7755864193555
 20
516.2652036790541
 30
0.0
 10
354.1913071366056
 20
516.7159913587124
 30
0.0
 10
354.5701892837772
 20
517.1835043096024
 30
0.0
 10
354.9115500140665
 20
517.6635529339
 30
0.0
 10
355.215842470635
 20
518.1513637918694
 30
0.0
 10
355.4810509339685
 20
518.6429700179555
 30
0.0
 10
355.6640128315885
 20
519.022731117591
 30
0.0
 10
355.7515481831986
 20
519.2404206580138
 30
0.0
 10
355.7712404868121
 20
519.2910914901449
 30
0.0
  0
SPLINE
  5
126
330
1F
100
AcDbEntity
  8
1
  6
Continuous
 62
    30
370
    13
100
AcDbSpline
210
0.0
220
0.0
230
1.0
 70
     8
 71
     3
 72
    30
 73
    26
 74
     0
 42
0.000000001
 43
0.0000000001
 40
0.0
 40
0.0
 40
0.0
 40
0.0
 40
0.1250000000000002
 40
0.1250000000000002
 40
0.2500000000000004
 40
0.2500000000000004
 40
0.3750000000000007
 40
0.3750000000000007
 40
0.5000000000000009
 40
0.5000000000000009
 40
0.5625000000000008
 40
0.5625000000000008
 40
0.6250000000000007
 40
0.6250000000000007
 40
0.6875000000000006
 40
0.6875000000000006
 40
0.7500000000000004
 40
0.7500000000000004
 40
0.8125000000000003
 40
0.8125000000000003
 40
0.8750000000000002
 40
0.8750000000000002
 40
0.9375000000000001
 40
0.9375000000000001
 40
1.0
 40
1.0
 40
1.0
 40
1.0
 10
482.5449691356353
 20
544.3968216841604
 30
0.0
 10
482.5578716776351
 20
543.8912032014895
 30
0.0
 10
482.5482772562359
 20
543.3880015411664
 30
0.0
 10
482.4941134477702
 20
542.3853555399924
 30
0.0
 10
482.4494954177102
 20
541.8859164248009
 30
0.0
 10
482.3359983072068
 20
540.8896445305581
 30
0.0
 10
482.2670844498153
 20
540.3928154875535
 30
0.0
 10
482.1177933488981
 20
539.4003888996491
 30
0.0
 10
482.0374117740663
 20
538.9047918200565
 30
0.0
 10
481.9199069743597
 20
538.1610666560275
 30
0.0
 10
481.881272404736
 20
537.9131009335821
 30
0.0
 10
481.8072253648553
 20
537.4168233423417
 30
0.0
 10
481.7718103324315
 20
537.1684650018378
 30
0.0
 10
481.706439344614
 20
536.6713727204186
 30
0.0
 10
481.6765040545201
 20
536.4227521031247
 30
0.0
 10
481.6242298334425
 20
535.9253051561905
 30
0.0
 10
481.6018973492933
 20
535.6764786519673
 30
0.0
 10
481.5666395624154
 20
535.1785708934053
 30
0.0
 10
481.5537205470087
 20
534.9294894688034
 30
0.0
 10
481.5386085873293
 20
534.4310361534393
 30
0.0
 10
481.5364203283269
 20
534.1816641357984
 30
0.0
 10
481.5434265028448
 20
533.6826118527952
 30
0.0
 10
481.5526227141468
 20
533.4329315392897
 30
0.0
 10
481.5822906030315
 20
532.9332655682856
 30
0.0
 10
481.6027605498564
 20
532.6832799576565
 30
0.0
 10
481.6284316332828
 20
532.4331534982341
 30
0.0
  0
SPLINE
  5
127
330
1F
100
AcDbEntity
  8
1
  6
Continuous
 62
    30
370
    13
100
AcDbSpline
210
0.0
220
0.0
230
1.0
 70
     8
 71
     3
 72
    57
 73
    53
 74
     0
 42
0.000000001
 43
0.0000000001
 40
0.0
 40
0.0
 40
0.0
 40
0.0
 40
0.0625152876568049
 40
0.1250305753136097
 40
0.1250305753136097
 40
0.1406593972278108
 40
0.1406593972278108
 40
0.1562882191420119
 40
0.1562882191420119
 40
0.1875458629704139
 40
0.1875458629704139
 40
0.250061150627218
 40
0.250061150627218
 40
0.312576438284022
 40
0.312576438284022
 40
0.3438340821124243
 40
0.3438340821124243
 40
0.3516484930695248
 40
0.3516484930695248
 40
0.3594629040266254
 40
0.3750917259408268
 40
0.3750917259408268
 40
0.4376070135976334
 40
0.4376070135976334
 40
0.5001223012544399
 40
0.5001223012544399
 40
0.5626375889112464
 40
0.5626375889112464
 40
0.6251528765680529
 40
0.6251528765680529
 40
0.6876681642248594
 40
0.6876681642248594
 40
0.7501834518816661
 40
0.7501834518816661
 40
0.7658122737958678
 40
0.7736266847529687
 40
0.7736266847529687
 40
0.7814410957100695
 40
0.7814410957100695
 40
0.812698739538473
 40
0.812698739538473
 40
0.8752140271952801
 40
0.8752140271952801
 40
0.9377293148520872
 40
0.9377293148520872
 40
0.9689869586804908
 40
0.9689869586804908
 40
0.9846157805946926
 40
0.9846157805946926
 40
0.9924301915517934
 40
0.9924301915517934
 40
1.0
 40
1.0
 40
1.0
 40
1.0
 10
481.6284316332828
 20
532.4331534982341
 30
0.0
 10
481.6605934133207
 20
531.8064162440244
 30
0.0
 10
481.7234430485587
 20
530.5594137800954
 30
0.0
 10
481.7835333243493
 20
529.3251534935594
 30
0.0
 10
481.8202758455058
 20
528.5577773555824
 30
0.0
 10
481.8275907899451
 20
528.404352451852
 30
0.0
 10
481.8420817140248
 20
528.0991473544655
 30
0.0
 10
481.8492626017537
 20
527.9472659958304
 30
0.0
 10
481.8706162056999
 20
527.4937625922131
 30
0.0
 10
481.8845999643918
 20
527.1942798820968
 30
0.0
 10
481.9258287223223
 20
526.3042573691622
 30
0.0
 10
481.952352568887
 20
525.7221234027143
 30
0.0
 10
482.0036182055594
 20
524.5800706661993
 30
0.0
 10
482.0283598144236
 20
524.0201514021486
 30
0.0
 10
482.0642104880218
 20
523.1972553040051
 30
0.0
 10
482.075950114422
 20
522.9257921045141
 30
0.0
 10
482.0903669376923
 20
522.5900813254684
 30
0.0
 10
482.0932392127827
 20
522.5230779930642
 30
0.0
 10
482.0989440766202
 20
522.3897636390136
 30
0.0
 10
482.1074450370677
 20
522.1907566313638
 30
0.0
 10
482.1157792460308
 20
521.9946259221626
 30
0.0
 10
482.1431986028686
 20
521.3471839385674
 30
0.0
 10
482.1639807261005
 20
520.8494303856845
 30
0.0
 10
482.2034248783552
 20
519.8934358041291
 30
0.0
 10
482.2220865548836
 20
519.4351962725266
 30
0.0
 10
482.2574079088349
 20
518.558492842552
 30
0.0
 10
482.2740682594182
 20
518.1400064492119
 30
0.0
 10
482.3054409290808
 20
517.3443207750978
 30
0.0
 10
482.3198922852968
 20
516.9737595980899
 30
0.0
 10
482.3465247005618
 20
516.2853225553421
 30
0.0
 10
482.3587052607957
 20
515.9674519540679
 30
0.0
 10
482.3809091816336
 20
515.3840985461663
 30
0.0
 10
482.390932440914
 20
515.1186135782103
 30
0.0
 10
482.402136508928
 20
514.8202572605262
 30
0.0
 10
482.405398074973
 20
514.733268660637
 30
0.0
 10
482.4085099651153
 20
514.6500968981093
 30
0.0
 10
482.4105512388201
 20
514.5955024221812
 30
0.0
 10
482.4115554478467
 20
514.5686256344088
 30
0.0
 10
482.4164795972812
 20
514.4367484487485
 30
0.0
 10
482.4201202670225
 20
514.3389649099156
 30
0.0
 10
482.4301764626869
 20
514.0683050762267
 30
0.0
 10
482.4357288389328
 20
513.9180657797696
 30
0.0
 10
482.4446216788824
 20
513.6768901743949
 30
0.0
 10
482.4479620017985
 20
513.5859549942228
 30
0.0
 10
482.4513188742322
 20
513.4944975600973
 30
0.0
 10
482.4521615891749
 20
513.471515882509
 30
0.0
 10
482.4530060285425
 20
513.4484826330577
 30
0.0
 10
482.4532175269603
 20
513.4427123257367
 30
0.0
 10
482.4534287470104
 20
513.4369493324432
 30
0.0
 10
482.4534814961364
 20
513.4355100216734
 30
0.0
 10
482.4535502630381
 20
513.4336336281665
 30
0.0
 10
482.4535673709676
 20
513.4331668003781
 30
0.0
 10
482.453567848177
 20
513.4331537784701
 30
0.0
  0
SPLINE
  5
128
330
1F
100
AcDbEntity
  8
1
  6
Continuous
 62
    30
370
    18
100
AcDbSpline
210
0.0
220
0.0
230
1.0
 70
     8
 71
     3
 72
   115
 73
   111
 74
     0
 42
0.000000001
 43
0.0000000001
 40
0.0
 40
0.0
 40
0.0
 40
0.0
 40
0.0312500000000491
 40
0.0312500000000491
 40
0.0625000000000981
 40
0.0625000000000981
 40
0.0703125000001106
 40
0.0703125000001106
 40
0.078125000000123
 40
0.0937500000001414
 40
0.0937500000001414
 40
0.1250000000001782
 40
0.1250000000001782
 40
0.1406250000001966
 40
0.1406250000001966
 40
0.148437500000202
 40
0.148437500000202
 40
0.1562500000002074
 40
0.1562500000002074
 40
0.1875000000002128
 40
0.1875000000002128
 40
0.2187500000002182
 40
0.2187500000002182
 40
0.2265625000002196
 40
0.2265625000002196
 40
0.234375000000221
 40
0.234375000000221
 40
0.2500000000002237
 40
0.2500000000002237
 40
0.2812500000002291
 40
0.2812500000002291
 40
0.2968750000002275
 40
0.2968750000002275
 40
0.3125000000002258
 40
0.3125000000002258
 40
0.3437500000002222
 40
0.3437500000002222
 40
0.3750000000002186
 40
0.3750000000002186
 40
0.3828125000002195
 40
0.3828125000002195
 40
0.3906250000002205
 40
0.4062500000002218
 40
0.4062500000002218
 40
0.4375000000002182
 40
0.4375000000002182
 40
0.4453125000002179
 40
0.4453125000002179
 40
0.4531250000002177
 40
0.4531250000002177
 40
0.4687500000002172
 40
0.4687500000002172
 40
0.5000000000002172
 40
0.5000000000002172
 40
0.5156250000002182
 40
0.5156250000002182
 40
0.5234375000002186
 40
0.5234375000002186
 40
0.5312500000002192
 40
0.5312500000002192
 40
0.5625000000002208
 40
0.5625000000002208
 40
0.5703125000002212
 40
0.5703125000002212
 40
0.5781250000002216
 40
0.5781250000002216
 40
0.5937500000002235
 40
0.5937500000002235
 40
0.6250000000002259
 40
0.6250000000002259
 40
0.6406250000002276
 40
0.6406250000002276
 40
0.6484375000002285
 40
0.6484375000002285
 40
0.6562500000002293
 40
0.6562500000002293
 40
0.6875000000002272
 40
0.6875000000002272
 40
0.718750000000225
 40
0.718750000000225
 40
0.7343750000002214
 40
0.7343750000002214
 40
0.7500000000002177
 40
0.7500000000002177
 40
0.7812500000002045
 40
0.7812500000002045
 40
0.7890625000001994
 40
0.7890625000001994
 40
0.7968750000001944
 40
0.7968750000001944
 40
0.8125000000001831
 40
0.8125000000001831
 40
0.8437500000001605
 40
0.8437500000001605
 40
0.8593750000001492
 40
0.8593750000001492
 40
0.8671875000001437
 40
0.8671875000001437
 40
0.8750000000001381
 40
0.8750000000001381
 40
0.9062500000001015
 40
0.9062500000001015
 40
0.9375000000000648
 40
0.9375000000000648
 40
0.9453125000000538
 40
0.9453125000000538
 40
0.9531250000000427
 40
0.9687500000000286
 40
0.9687500000000286
 40
1.0
 40
1.0
 40
1.0
 40
1.0
 10
443.2544556238537
 20
756.4710974061342
 30
0.0
 10
443.1733914374408
 20
756.4240435827192
 30
0.0
 10
443.0963159972032
 20
756.3719571851091
 30
0.0
 10
442.9497561179595
 20
756.2578847764554
 30
0.0
 10
442.8802725857098
 20
756.1958988255585
 30
0.0
 10
442.7982457360487
 20
756.111949582649
 30
0.0
 10
442.782116065472
 20
756.0948668805377
 30
0.0
 10
442.7505514080628
 20
756.0602765052511
 30
0.0
 10
442.7041787796821
 20
756.0076837649527
 30
0.0
 10
442.6606914154555
 20
755.9529861036519
 30
0.0
 10
442.5775207459206
 20
755.8407922346123
 30
0.0
 10
442.5271261336487
 20
755.762277538639
 30
0.0
 10
442.4592976969342
 20
755.6387325177559
 30
0.0
 10
442.4379869390743
 20
755.5965856016375
 30
0.0
 10
442.4080388908902
 20
755.5318626227048
 30
0.0
 10
442.3983783270779
 20
755.5100026122361
 30
0.0
 10
442.3798159737922
 20
755.4659352525982
 30
0.0
 10
442.3709339080822
 20
755.4437784754
 30
0.0
 10
442.3285022225842
 20
755.3323847383502
 30
0.0
 10
442.3008603810717
 20
755.2413250499608
 30
0.0
 10
442.2582111988251
 20
755.0553483631393
 30
0.0
 10
442.2432011764608
 20
754.9604318464296
 30
0.0
 10
442.2328139345834
 20
754.8392850317063
 30
0.0
 10
442.2311572345877
 20
754.8149301433837
 30
0.0
 10
442.2287058562135
 20
754.7659650582004
 30
0.0
 10
442.2279142853661
 20
754.7413690110754
 30
0.0
 10
442.2268610899007
 20
754.6678387127331
 30
0.0
 10
442.2279069112493
 20
754.618951114906
 30
0.0
 10
442.2362253283944
 20
754.4726987615975
 30
0.0
 10
442.248654508891
 20
754.3757417262407
 30
0.0
 10
442.277814342575
 20
754.231220199251
 30
0.0
 10
442.2892929484068
 20
754.1831993453791
 30
0.0
 10
442.3158771819811
 20
754.0874887546935
 30
0.0
 10
442.3310535830507
 20
754.0396321408048
 30
0.0
 10
442.3814041411005
 20
753.8988606881497
 30
0.0
 10
442.4214811413145
 20
753.808157820161
 30
0.0
 10
442.5144187909195
 20
753.6330085622157
 30
0.0
 10
442.5672776204681
 20
753.5485610008477
 30
0.0
 10
442.6416814110523
 20
753.4471290617977
 30
0.0
 10
442.6569813952215
 20
753.4270535381104
 30
0.0
 10
442.6881620219929
 20
753.387655755422
 30
0.0
 10
442.7358977290561
 20
753.329559495392
 30
0.0
 10
442.7864854772781
 20
753.2744235679585
 30
0.0
 10
442.8914087340735
 20
753.1680487748346
 30
0.0
 10
442.9663348691755
 20
753.1023080556586
 30
0.0
 10
443.0663284930515
 20
753.0267402610241
 30
0.0
 10
443.0866455817272
 20
753.0119587172934
 30
0.0
 10
443.1279258502473
 20
752.9830698130964
 30
0.0
 10
443.1489211323315
 20
752.9689435226048
 30
0.0
 10
443.2123848056035
 20
752.927914123718
 30
0.0
 10
443.2554642407432
 20
752.902258257252
 30
0.0
 10
443.3869573280558
 20
752.8302588770625
 30
0.0
 10
443.4776141668202
 20
752.7888581331954
 30
0.0
 10
443.6180864135404
 20
752.7366451341993
 30
0.0
 10
443.6656612288901
 20
752.7208951889804
 30
0.0
 10
443.738176261584
 20
752.6998106322268
 30
0.0
 10
443.7625855660677
 20
752.6931954269082
 30
0.0
 10
443.8115320023987
 20
752.6808921666675
 30
0.0
 10
443.8360644272104
 20
752.6752030060836
 30
0.0
 10
443.9590191569791
 20
752.649044062873
 30
0.0
 10
444.0583148205342
 20
752.6353986518059
 30
0.0
 10
444.1835900431925
 20
752.6274063259733
 30
0.0
 10
444.2087031474023
 20
752.6262633384613
 30
0.0
 10
444.2590463664192
 20
752.6248965034468
 30
0.0
 10
444.2843273334065
 20
752.6246739279477
 30
0.0
 10
444.3598481107496
 20
752.625393439842
 30
0.0
 10
444.4098733216433
 20
752.6277112203326
 30
0.0
 10
444.5590037581825
 20
752.6400255591615
 30
0.0
 10
444.6571686857887
 20
752.6553566748624
 30
0.0
 10
444.8025222887743
 20
752.6889338432416
 30
0.0
 10
444.8506566260751
 20
752.7018963380731
 30
0.0
 10
444.9223700053308
 20
752.7240441398427
 30
0.0
 10
444.9462175044147
 20
752.7318864587178
 30
0.0
 10
444.993640388015
 20
752.7484497386754
 30
0.0
 10
445.0171190574293
 20
752.7571358582751
 30
0.0
 10
445.1333665900161
 20
752.80255029316
 30
0.0
 10
445.2227150756996
 20
752.8452002467111
 30
0.0
 10
445.3942882320505
 20
752.9426540615233
 30
0.0
 10
445.4765127956491
 20
752.9974587253007
 30
0.0
 10
445.5943219079393
 20
753.0889659506156
 30
0.0
 10
445.6322653719653
 20
753.1207171344294
 30
0.0
 10
445.7053287594508
 20
753.186405705728
 30
0.0
 10
445.7404922668114
 20
753.2203771511843
 30
0.0
 10
445.841963200226
 20
753.325574701991
 30
0.0
 10
445.9042688256812
 20
753.4000685287737
 30
0.0
 10
445.975478484406
 20
753.4985563657109
 30
0.0
 10
445.9893853807844
 20
753.5185236960534
 30
0.0
 10
446.0165234636379
 20
753.5590008228892
 30
0.0
 10
446.0297419707061
 20
753.579495249074
 30
0.0
 10
446.0680891076133
 20
753.6413135112902
 30
0.0
 10
446.0920144636635
 20
753.6831234732277
 30
0.0
 10
446.1590415424254
 20
753.8102698634777
 30
0.0
 10
446.1974152748551
 20
753.8973136739153
 30
0.0
 10
446.2457725165142
 20
754.0311718090018
 30
0.0
 10
446.2603523337838
 20
754.0763422614197
 30
0.0
 10
446.2798978764562
 20
754.1449295814282
 30
0.0
 10
446.2860346919015
 20
754.1679710837137
 30
0.0
 10
446.2974621668817
 20
754.2140652460532
 30
0.0
 10
446.3027576582257
 20
754.237128720458
 30
0.0
 10
446.3271844787228
 20
754.3525276465473
 30
0.0
 10
446.3401944510186
 20
754.4451045739578
 30
0.0
 10
446.3536784906468
 20
754.6308155902425
 30
0.0
 10
446.3541523068067
 20
754.7239493424601
 30
0.0
 10
446.3467669848633
 20
754.8407932279741
 30
0.0
 10
446.3448854736803
 20
754.864209113284
 30
0.0
 10
446.3403443429714
 20
754.9107780631323
 30
0.0
 10
446.3323609418433
 20
754.9803395058323
 30
0.0
 10
446.3209123911299
 20
755.0490486877663
 30
0.0
 10
446.2934581186385
 20
755.1853793709546
 30
0.0
 10
446.2691035123852
 20
755.274820613641
 30
0.0
 10
446.2385722969017
 20
755.3628897225075
 30
0.0
  0
SPLINE
  5
129
330
1F
100
AcDbEntity
  8
1
  6
Continuous
 62
    30
370
    13
100
AcDbSpline
210
0.0
220
0.0
230
1.0
 70
     8
 71
     3
 72
    59
 73
    55
 74
     0
 42
0.000000001
 43
0.0000000001
 40
0.0
 40
0.0
 40
0.0
 40
0.0
 40
0.0000273984331602
 40
0.0000273984331602
 40
0.0625256860310875
 40
0.0625256860310875
 40
0.1250239736290151
 40
0.1250239736290151
 40
0.1875222612269425
 40
0.1875222612269425
 40
0.2031468331264244
 40
0.2031468331264244
 40
0.2109591190761655
 40
0.2109591190761655
 40
0.2187714050259065
 40
0.2500205488248701
 40
0.2500205488248701
 40
0.312518836422797
 40
0.3750171240207241
 40
0.3750171240207241
 40
0.4062662678196875
 40
0.4062662678196875
 40
0.4140785537694284
 40
0.4140785537694284
 40
0.4218908397191691
 40
0.4218908397191691
 40
0.437515411618651
 40
0.437515411618651
 40
0.5000136992165782
 40
0.5000136992165782
 40
0.5625119868145055
 40
0.5625119868145055
 40
0.6250102744124327
 40
0.6250102744124327
 40
0.6328225603621739
 40
0.6328225603621739
 40
0.6406348463119148
 40
0.6406348463119148
 40
0.6562594182113969
 40
0.6562594182113969
 40
0.6875085620103609
 40
0.6875085620103609
 40
0.7500068496082888
 40
0.8125051372062168
 40
0.8125051372062168
 40
0.8437542810051806
 40
0.8437542810051806
 40
0.8593788529046625
 40
0.8593788529046625
 40
0.8750034248041444
 40
0.8750034248041444
 40
0.9375017124020724
 40
0.9375017124020724
 40
1.0
 40
1.0
 40
1.0
 40
1.0
 10
347.0011354872402
 20
513.4331528289878
 30
0.0
 10
347.0011355238673
 20
513.4331538284168
 30
0.0
 10
347.001135560494
 20
513.433154827846
 30
0.0
 10
347.0011404620078
 20
513.4332885751189
 30
0.0
 10
347.0022757731057
 20
513.4642908258187
 30
0.0
 10
347.0067481505683
 20
513.5861395349267
 30
0.0
 10
347.0100853854493
 20
513.6769908249796
 30
0.0
 10
347.0189877385736
 20
513.9184234979747
 30
0.0
 10
347.0245526046742
 20
514.0690013002637
 30
0.0
 10
347.0329706901477
 20
514.2955660693766
 30
0.0
 10
347.0347276313142
 20
514.3428006342922
 30
0.0
 10
347.0374750391626
 20
514.4165678767081
 30
0.0
 10
347.0384093700476
 20
514.4416391059796
 30
0.0
 10
347.0403102544777
 20
514.4926126877879
 30
0.0
 10
347.0451462127314
 20
514.6222098843219
 30
0.0
 10
347.0503996606342
 20
514.7625495418082
 30
0.0
 10
347.0638087630513
 20
515.1196144263703
 30
0.0
 10
347.0838185664957
 20
515.6496045458906
 30
0.0
 10
347.1081976946036
 20
516.2858220977203
 30
0.0
 10
347.1282200877795
 20
516.8033811177422
 30
0.0
 10
347.1351845217803
 20
516.9826453537673
 30
0.0
 10
347.1442684625675
 20
517.2153090715592
 30
0.0
 10
347.146104185248
 20
517.2622712467697
 30
0.0
 10
347.1498139476299
 20
517.357059341479
 30
0.0
 10
347.1516890625549
 20
517.4049126582015
 30
0.0
 10
347.157364898139
 20
517.5495801369589
 30
0.0
 10
347.1612102449145
 20
517.6473526603055
 30
0.0
 10
347.1807454682627
 20
518.142776171631
 30
0.0
 10
347.1973583664779
 20
518.5600607663647
 30
0.0
 10
347.2326240631878
 20
519.4353695865088
 30
0.0
 10
347.2512767369012
 20
519.8933964555761
 30
0.0
 10
347.2907560091224
 20
520.8502358538452
 30
0.0
 10
347.3115821632928
 20
521.3490453163961
 30
0.0
 10
347.3363500813894
 20
521.9338417400742
 30
0.0
 10
347.33912071477
 20
521.9991482133356
 30
0.0
 10
347.3446997629242
 20
522.1304232053324
 30
0.0
 10
347.3475090835444
 20
522.1964127990461
 30
0.0
 10
347.3559708221859
 20
522.3948268255151
 30
0.0
 10
347.3616643408853
 20
522.5278691917435
 30
0.0
 10
347.3789034942116
 20
522.9292694218369
 30
0.0
 10
347.3906076472283
 20
523.199898985269
 30
0.0
 10
347.4263692576932
 20
524.0207223888452
 30
0.0
 10
347.4757800733836
 20
525.1389377831143
 30
0.0
 10
347.5288687170902
 20
526.3041409426847
 30
0.0
 10
347.5701813015275
 20
527.1959556315114
 30
0.0
 10
347.584201885272
 20
527.4962178718766
 30
0.0
 10
347.6056257165906
 20
527.9511842928637
 30
0.0
 10
347.6128401993518
 20
528.1037632349501
 30
0.0
 10
347.6273417427153
 20
528.4091656555255
 30
0.0
 10
347.6346335203162
 20
528.5620906785143
 30
0.0
 10
347.6713002015686
 20
529.3278268709954
 30
0.0
 10
347.7012978222924
 20
529.9439631610912
 30
0.0
 10
347.7627027578124
 20
531.1832580781287
 30
0.0
 10
347.7941099718795
 20
531.8064165360756
 30
0.0
 10
347.8262717369305
 20
532.4331534982343
 30
0.0
  0
SPLINE
  5
12A
330
1F
100
AcDbEntity
  8
1
  6
Continuous
 62
    30
370
    18
100
AcDbSpline
210
0.0
220
0.0
230
1.0
 70
     8
 71
     3
 72
    69
 73
    65
 74
     0
 42
0.000000001
 43
0.0000000001
 40
0.0
 40
0.0
 40
0.0
 40
0.0
 40
0.0625000000000213
 40
0.0625000000000213
 40
0.0937500000000319
 40
0.0937500000000319
 40
0.1093750000000372
 40
0.1093750000000372
 40
0.1250000000000424
 40
0.1250000000000424
 40
0.1875000000000639
 40
0.1875000000000639
 40
0.2187500000000746
 40
0.2187500000000746
 40
0.2343750000000736
 40
0.2343750000000736
 40
0.2500000000000727
 40
0.2500000000000727
 40
0.3125000000000803
 40
0.3125000000000803
 40
0.3281250000000753
 40
0.3281250000000753
 40
0.3437500000000703
 40
0.3437500000000703
 40
0.3750000000000616
 40
0.3750000000000616
 40
0.437500000000043
 40
0.437500000000043
 40
0.453125000000039
 40
0.453125000000039
 40
0.4687500000000349
 40
0.4687500000000349
 40
0.5000000000000295
 40
0.5000000000000295
 40
0.5625000000000171
 40
0.5625000000000171
 40
0.5781250000000123
 40
0.5781250000000123
 40
0.5937500000000075
 40
0.5937500000000075
 40
0.6249999999999998
 40
0.656249999999992
 40
0.656249999999992
 40
0.6718749999999898
 40
0.6718749999999898
 40
0.6874999999999876
 40
0.6874999999999876
 40
0.7499999999999742
 40
0.7499999999999742
 40
0.7812499999999682
 40
0.7812499999999682
 40
0.7968749999999697
 40
0.7968749999999697
 40
0.8124999999999711
 40
0.8124999999999711
 40
0.8749999999999756
 40
0.8749999999999756
 40
0.8906249999999787
 40
0.8906249999999787
 40
0.9062499999999818
 40
0.9062499999999818
 40
0.9374999999999879
 40
0.9374999999999879
 40
1.0
 40
1.0
 40
1.0
 40
1.0
 10
435.6044750858501
 20
754.3809827151183
 30
0.0
 10
435.6236857907663
 20
754.5088893857508
 30
0.0
 10
435.6306580174657
 20
754.6364921571076
 30
0.0
 10
435.6235700696171
 20
754.8274740912676
 30
0.0
 10
435.6182630844416
 20
754.8910639804253
 30
0.0
 10
435.605811542068
 20
754.9863436240022
 30
0.0
 10
435.6009113063932
 20
755.0180859518107
 30
0.0
 10
435.5895835550461
 20
755.081535387939
 30
0.0
 10
435.5831716901919
 20
755.113135754983
 30
0.0
 10
435.5476384000851
 20
755.2694851310903
 30
0.0
 10
435.5080115613069
 20
755.3903338621842
 30
0.0
 10
435.4321452890125
 20
755.5654824079247
 30
0.0
 10
435.4041007150977
 20
755.6228377730183
 30
0.0
 10
435.3577786881442
 20
755.7072956531522
 30
0.0
 10
435.3416246179061
 20
755.7351799429621
 30
0.0
 10
435.3082297964445
 20
755.7898467768769
 30
0.0
 10
435.2909496287966
 20
755.8167037514944
 30
0.0
 10
435.2016781317313
 20
755.948647950875
 30
0.0
 10
435.1211504625234
 20
756.0467751284843
 30
0.0
 10
435.0090184124799
 20
756.1601765914018
 30
0.0
 10
434.9860136402428
 20
756.1823901346334
 30
0.0
 10
434.938825699344
 20
756.2258684824142
 30
0.0
 10
434.9145790135212
 20
756.2471838388431
 30
0.0
 10
434.8407163787235
 20
756.3091107503334
 30
0.0
 10
434.7898810183429
 20
756.3478216082488
 30
0.0
 10
434.6327125162954
 20
756.4564448461521
 30
0.0
 10
434.5217568004567
 20
756.5189131838661
 30
0.0
 10
434.375123479446
 20
756.5842642212332
 30
0.0
 10
434.345348551555
 20
756.5967110665515
 30
0.0
 10
434.285192455648
 20
756.6202087152675
 30
0.0
 10
434.2549545004179
 20
756.6312063456982
 30
0.0
 10
434.1637702948764
 20
756.6619895719798
 30
0.0
 10
434.1023547182236
 20
756.6795702437514
 30
0.0
 10
433.9162658470061
 20
756.7236572897351
 30
0.0
 10
433.7897668336466
 20
756.7415855096233
 30
0.0
 10
433.6284702262743
 20
756.7490916965588
 30
0.0
 10
433.5962427653963
 20
756.7498309899755
 30
0.0
 10
433.5320538768829
 20
756.7498090999615
 30
0.0
 10
433.5000592127678
 20
756.7490494943179
 30
0.0
 10
433.4043690227571
 20
756.74455863773
 30
0.0
 10
433.2775644068241
 20
756.7326815854706
 30
0.0
 10
433.1522947787951
 20
756.7091497433761
 30
0.0
 10
433.0589211837516
 20
756.6870610297717
 30
0.0
 10
433.0278932358998
 20
756.678956935946
 30
0.0
 10
432.9660328520475
 20
756.6612394664752
 30
0.0
 10
432.9352910192747
 20
756.651648368522
 30
0.0
 10
432.7835778595947
 20
756.6004140558646
 30
0.0
 10
432.667511990308
 20
756.5487331043281
 30
0.0
 10
432.5011136933471
 20
756.4554859764468
 30
0.0
 10
432.4469395401001
 20
756.4217652792785
 30
0.0
 10
432.3676626976444
 20
756.3671043982132
 30
0.0
 10
432.3415546575774
 20
756.3481867136973
 30
0.0
 10
432.2905435272703
 20
756.3093781260553
 30
0.0
 10
432.2655708637613
 20
756.2894412638132
 30
0.0
 10
432.1433275109693
 20
756.1871328082239
 30
0.0
 10
432.0538475646067
 20
756.0969573799364
 30
0.0
 10
431.9523883067623
 20
755.9737443255143
 30
0.0
 10
431.9326203140041
 20
755.9485727273633
 30
0.0
 10
431.8941497813318
 20
755.8971517332824
 30
0.0
 10
431.875401906093
 20
755.8708333112838
 30
0.0
 10
431.8211977453116
 20
755.7908272478497
 30
0.0
 10
431.7877711646178
 20
755.7361194216937
 30
0.0
 10
431.6954363305398
 20
755.567972032276
 30
0.0
 10
431.6444026054741
 20
755.4505438108747
 30
0.0
 10
431.6042509246259
 20
755.3275942530871
 30
0.0
  0
SPLINE
  5
12B
330
1F
100
AcDbEntity
  8
1
  6
Continuous
 62
    30
370
    18
100
AcDbSpline
210
0.0
220
0.0
230
1.0
 70
     8
 71
     3
 72
   111
 73
   107
 74
     0
 42
0.000000001
 43
0.0000000001
 40
0.0
 40
0.0
 40
0.0
 40
0.0
 40
0.0312499999999954
 40
0.0312499999999954
 40
0.0624999999999909
 40
0.0624999999999909
 40
0.0703124999999901
 40
0.0703124999999901
 40
0.0781249999999893
 40
0.0781249999999893
 40
0.0937499999999883
 40
0.0937499999999883
 40
0.1249999999999784
 40
0.1249999999999784
 40
0.1406249999999732
 40
0.1406249999999732
 40
0.1562499999999681
 40
0.1562499999999681
 40
0.1874999999999668
 40
0.2187499999999654
 40
0.2187499999999654
 40
0.2265624999999672
 40
0.2265624999999672
 40
0.2343749999999689
 40
0.2499999999999722
 40
0.2499999999999722
 40
0.2812499999999871
 40
0.2812499999999871
 40
0.2968749999999947
 40
0.2968749999999947
 40
0.3046874999999982
 40
0.3046874999999982
 40
0.3125000000000018
 40
0.3125000000000018
 40
0.3437500000000325
 40
0.3437500000000325
 40
0.3750000000000631
 40
0.3750000000000631
 40
0.382812500000066
 40
0.382812500000066
 40
0.3906250000000689
 40
0.4062500000000683
 40
0.4062500000000683
 40
0.4375000000000671
 40
0.4375000000000671
 40
0.453125000000067
 40
0.453125000000067
 40
0.4609375000000653
 40
0.4609375000000653
 40
0.4687500000000636
 40
0.4687500000000636
 40
0.5000000000000541
 40
0.5000000000000541
 40
0.5312500000000445
 40
0.5312500000000445
 40
0.5468750000000396
 40
0.5468750000000396
 40
0.562500000000035
 40
0.562500000000035
 40
0.5937500000000242
 40
0.5937500000000242
 40
0.6015625000000201
 40
0.6015625000000201
 40
0.6093750000000159
 40
0.6093750000000159
 40
0.6250000000000082
 40
0.6250000000000082
 40
0.6562499999999948
 40
0.6562499999999948
 40
0.6718749999999863
 40
0.6718749999999863
 40
0.6796874999999841
 40
0.6796874999999841
 40
0.6874999999999819
 40
0.6874999999999819
 40
0.7187499999999806
 40
0.7187499999999806
 40
0.7499999999999791
 40
0.7499999999999791
 40
0.7578124999999737
 40
0.7578124999999737
 40
0.7656249999999682
 40
0.781249999999957
 40
0.781249999999957
 40
0.8124999999999345
 40
0.8124999999999345
 40
0.8281249999999271
 40
0.8281249999999271
 40
0.8359374999999236
 40
0.8359374999999236
 40
0.8437499999999201
 40
0.8437499999999201
 40
0.8749999999999308
 40
0.8749999999999308
 40
0.9062499999999416
 40
0.9062499999999416
 40
0.9140624999999443
 40
0.9140624999999443
 40
0.9218749999999469
 40
0.9374999999999611
 40
0.9374999999999611
 40
0.9687499999999805
 40
0.9687499999999805
 40
0.9843749999999903
 40
0.9843749999999903
 40
1.0
 40
1.0
 40
1.0
 40
1.0
 10
440.1653372169674
 20
753.037684425441
 30
0.0
 10
440.2425412594808
 20
753.0956229662634
 30
0.0
 10
440.3147725548662
 20
753.1582592529991
 30
0.0
 10
440.4496907435811
 20
753.2925270859126
 30
0.0
 10
440.5123764722376
 20
753.3641598045772
 30
0.0
 10
440.5846694960961
 20
753.459404923552
 30
0.0
 10
440.5988235412569
 20
753.4787404413797
 30
0.0
 10
440.6265144898151
 20
753.5179917777043
 30
0.0
 10
440.6400736800049
 20
753.537943601208
 30
0.0
 10
440.679525425633
 20
753.5982375689015
 30
0.0
 10
440.704266714893
 20
753.6391105954965
 30
0.0
 10
440.7739396470625
 20
753.7636993300092
 30
0.0
 10
440.8143409041819
 20
753.8493753169514
 30
0.0
 10
440.8659904065016
 20
753.9817497816749
 30
0.0
 10
440.8817096431615
 20
754.026520392815
 30
0.0
 10
440.9101097976869
 20
754.1173713654478
 30
0.0
 10
440.9228206137452
 20
754.1636119375605
 30
0.0
 10
440.955838165823
 20
754.3023655471393
 30
0.0
 10
440.9866330710445
 20
754.4883010757824
 30
0.0
 10
440.9919826172327
 20
754.6760709608316
 30
0.0
 10
440.9872241796371
 20
754.7940400321091
 30
0.0
 10
440.9858616705692
 20
754.8177086583189
 30
0.0
 10
440.9823344019466
 20
754.8648322854848
 30
0.0
 10
440.9758443164716
 20
754.9352157498956
 30
0.0
 10
440.9658183800421
 20
755.0047142940206
 30
0.0
 10
440.9411465305024
 20
755.1425712702272
 30
0.0
 10
440.9185612577949
 20
755.2329607013629
 30
0.0
 10
440.8754343925646
 20
755.3663365430186
 30
0.0
 10
440.8595116696752
 20
755.410425864843
 30
0.0
 10
440.8332480379777
 20
755.4760024801753
 30
0.0
 10
440.8240840896899
 20
755.4977932613888
 30
0.0
 10
440.8050907264887
 20
755.5408754045873
 30
0.0
 10
440.7952481267357
 20
755.5622023000585
 30
0.0
 10
440.7443252035724
 20
755.6677829924951
 30
0.0
 10
440.6981407111824
 20
755.7488911925436
 30
0.0
 10
440.5949622438258
 20
755.9045719244184
 30
0.0
 10
440.5379703042518
 20
755.9791452596667
 30
0.0
 10
440.4596103043332
 20
756.0681359233995
 30
0.0
 10
440.4435491299602
 20
756.0857535943566
 30
0.0
 10
440.4109322682888
 20
756.1203098374405
 30
0.0
 10
440.3612202510967
 20
756.1711828867471
 30
0.0
 10
440.3091752011381
 20
756.2192121991246
 30
0.0
 10
440.2020033048091
 20
756.3115314301908
 30
0.0
 10
440.1264612233133
 20
756.3681103656165
 30
0.0
 10
440.0068527043368
 20
756.4453978317975
 30
0.0
 10
439.9659303158014
 20
756.4698922575626
 30
0.0
 10
439.9029122759738
 20
756.5046708273941
 30
0.0
 10
439.8815894786039
 20
756.515957398557
 30
0.0
 10
439.8387178991953
 20
756.5376972947502
 30
0.0
 10
439.817147585831
 20
756.5481645788514
 30
0.0
 10
439.7086324364141
 20
756.598514944003
 30
0.0
 10
439.6197063736315
 20
756.6324685475804
 30
0.0
 10
439.4377000864826
 20
756.687945505782
 30
0.0
 10
439.3446203059735
 20
756.7094701948183
 30
0.0
 10
439.2017580883439
 20
756.7320528551874
 30
0.0
 10
439.1541289934562
 20
756.7378700662351
 30
0.0
 10
439.0590626795798
 20
756.746163301077
 30
0.0
 10
439.0115900945695
 20
756.748644748745
 30
0.0
 10
438.869345078385
 20
756.7511847636414
 30
0.0
 10
438.7747450156793
 20
756.7463627482655
 30
0.0
 10
438.6567588182633
 20
756.7321308363366
 30
0.0
 10
438.6331748025789
 20
756.7288723470442
 30
0.0
 10
438.5860327453508
 20
756.7215219080896
 30
0.0
 10
438.5625138799505
 20
756.7174344510319
 30
0.0
 10
438.4925168776604
 20
756.7040210588192
 30
0.0
 10
438.4464386325097
 20
756.6935217332477
 30
0.0
 10
438.3098976484164
 20
756.6574775572321
 30
0.0
 10
438.2211206979867
 20
756.6274086704835
 30
0.0
 10
438.0912244119952
 20
756.5733205028713
 30
0.0
 10
438.0484725346101
 20
756.5537880448305
 30
0.0
 10
437.9851700990105
 20
756.5221924420139
 30
0.0
 10
437.9641725874325
 20
756.511257768852
 30
0.0
 10
437.9227212650243
 20
756.4887585003286
 30
0.0
 10
437.9022470432852
 20
756.4771853263513
 30
0.0
 10
437.8011103938691
 20
756.4177235773002
 30
0.0
 10
437.7241323309246
 20
756.3650712197423
 30
0.0
 10
437.5777744841961
 20
756.2497627382718
 30
0.0
 10
437.5083946157771
 20
756.1871073507982
 30
0.0
 10
437.4265494968159
 20
756.1022600749221
 30
0.0
 10
437.4104133674351
 20
756.0849466649252
 30
0.0
 10
437.3788727384731
 20
756.0499186549275
 30
0.0
 10
437.332570425336
 20
755.9966852205412
 30
0.0
 10
437.2892508349066
 20
755.941400678643
 30
0.0
 10
437.2065312245138
 20
755.8281214244986
 30
0.0
 10
437.1565916608236
 20
755.7490009411813
 30
0.0
 10
437.0896160438107
 20
755.624788395718
 30
0.0
 10
437.0686178696251
 20
755.5824591551832
 30
0.0
 10
437.0391725356729
 20
755.5175312762026
 30
0.0
 10
437.0296845380622
 20
755.4956097890167
 30
0.0
 10
437.0115375603465
 20
755.4516034610645
 30
0.0
 10
437.0028653223225
 20
755.4294930226961
 30
0.0
 10
436.9614868860577
 20
755.3184103518763
 30
0.0
 10
436.9347007278164
 20
755.2278535202339
 30
0.0
 10
436.8936251153651
 20
755.0433965406186
 30
0.0
 10
436.8793339249114
 20
754.9494967825736
 30
0.0
 10
436.8696492260211
 20
754.8299465371354
 30
0.0
 10
436.8681229246788
 20
754.8058917766239
 30
0.0
 10
436.8659213050178
 20
754.7579395880546
 30
0.0
 10
436.8638828258754
 20
754.6861294320203
 30
0.0
 10
436.8655828580992
 20
754.6146695354832
 30
0.0
 10
436.873894778868
 20
754.4722126938153
 30
0.0
 10
436.8859620723594
 20
754.3778563709138
 30
0.0
 10
436.9139850568478
 20
754.2372708838002
 30
0.0
 10
436.9249854251794
 20
754.1905678003999
 30
0.0
 10
436.950400684411
 20
754.0974911291789
 30
0.0
 10
436.9647431942962
 20
754.0513920634004
 30
0.0
 10
436.9806939119455
 20
754.0058293254967
 30
0.0
  0
SPLINE
  5
12C
330
1F
100
AcDbEntity
  8
1
  6
Continuous
 62
    30
370
    18
100
AcDbSpline
210
0.0
220
0.0
230
1.0
 70
     8
 71
     3
 72
    10
 73
     6
 74
     0
 42
0.000000001
 43
0.0000000001
 40
0.0
 40
0.0
 40
0.0
 40
0.0
 40
0.4853146853146766
 40
0.4853146853146766
 40
1.0
 40
1.0
 40
1.0
 40
1.0
 10
393.5122478912627
 20
748.1185205997947
 30
0.0
 10
394.0169007187502
 20
747.4607436747499
 30
0.0
 10
394.2710166815276
 20
746.5250823803012
 30
0.0
 10
394.2710166815276
 20
744.0100529610123
 30
0.0
 10
394.0061634245483
 20
743.0356989062669
 30
0.0
 10
393.4836151067244
 20
742.3849570285488
 30
0.0
  0
SPLINE
  5
12D
330
1F
100
AcDbEntity
  8
1
  6
Continuous
 62
    30
370
    18
100
AcDbSpline
210
0.0
220
0.0
230
1.0
 70
     8
 71
     3
 72
    10
 73
     6
 74
     0
 42
0.000000001
 43
0.0000000001
 40
0.0
 40
0.0
 40
0.0
 40
0.0
 40
0.5089285714285723
 40
0.5089285714285723
 40
1.0
 40
1.0
 40
1.0
 40
1.0
 10
389.5609236249778
 20
748.0059598425678
 30
0.0
 10
390.0834719428017
 20
748.7376047645427
 30
0.0
 10
390.7527632813844
 20
749.1034272255301
 30
0.0
 10
392.356199215529
 20
749.1034272255301
 30
0.0
 10
393.0040159657079
 20
748.7762975248395
 30
0.0
 10
393.5122478912627
 20
748.1185205997947
 30
0.0
  0
SPLINE
  5
12E
330
1F
100
AcDbEntity
  8
1
  6
Continuous
 62
    30
370
    18
100
AcDbSpline
210
0.0
220
0.0
230
1.0
 70
     8
 71
     3
 72
    10
 73
     6
 74
     0
 42
0.000000001
 43
0.0000000001
 40
0.0
 40
0.0
 40
0.0
 40
0.0
 40
0.5558035714285697
 40
0.5558035714285697
 40
1.0
 40
1.0
 40
1.0
 40
1.0
 10
439.5823982133815
 20
738.1287533959062
 30
0.0
 10
439.1672228375762
 20
737.7734835059088
 30
0.0
 10
438.51582698933
 20
737.5940897990783
 30
0.0
 10
436.9123910551854
 20
737.5940897990783
 30
0.0
 10
436.3647890508905
 20
737.7277556982854
 30
0.0
 10
435.9782464596234
 20
737.9880524493726
 30
0.0
  0
SPLINE
  5
12F
330
1F
100
AcDbEntity
  8
1
  6
Continuous
 62
    30
370
    18
100
AcDbSpline
210
0.0
220
0.0
230
1.0
 70
     8
 71
     3
 72
     8
 73
     4
 74
     0
 42
0.000000001
 43
0.0000000001
 40
0.0
 40
0.0
 40
0.0
 40
0.0
 40
1.0
 40
1.0
 40
1.0
 40
1.0
 10
399.3855478196807
 20
746.1874001086204
 30
0.0
 10
399.4678670752283
 20
747.0316057878223
 30
0.0
 10
399.7685113128804
 20
747.7175229021738
 30
0.0
 10
400.2910596307044
 20
748.2486689753382
 30
0.0
  0
SPLINE
  5
130
330
1F
100
AcDbEntity
  8
1
  6
Continuous
 62
    30
370
    18
100
AcDbSpline
210
0.0
220
0.0
230
1.0
 70
     8
 71
     3
 72
     8
 73
     4
 74
     0
 42
0.000000001
 43
0.0000000001
 40
0.0
 40
0.0
 40
0.0
 40
0.0
 40
1.0
 40
1.0
 40
1.0
 40
1.0
 10
404.1529064453071
 20
748.3752998272186
 30
0.0
 10
404.7219830380057
 20
747.9285743219742
 30
0.0
 10
405.0405227659942
 20
747.2004469236626
 30
0.0
 10
405.11210472734
 20
746.1874001086204
 30
0.0
  0
SPLINE
  5
131
330
1F
100
AcDbEntity
  8
1
  6
Continuous
 62
    30
370
    18
100
AcDbSpline
210
0.0
220
0.0
230
1.0
 70
     8
 71
     3
 72
    10
 73
     6
 74
     0
 42
0.000000001
 43
0.0000000001
 40
0.0
 40
0.0
 40
0.0
 40
0.0
 40
0.5445783132530115
 40
0.5445783132530115
 40
1.0
 40
1.0
 40
1.0
 40
1.0
 10
400.2910596307044
 20
748.2486689753382
 30
0.0
 10
400.8136079485283
 20
748.783332572166
 30
0.0
 10
401.4757410909763
 20
749.0471468469167
 30
0.0
 10
402.9610667889005
 20
749.0471468469167
 30
0.0
 10
403.5802507545411
 20
748.8255428561262
 30
0.0
 10
404.1529064453071
 20
748.3752998272186
 30
0.0
  0
SPLINE
  5
132
330
1F
100
AcDbEntity
  8
1
  6
Continuous
 62
    30
370
    18
100
AcDbSpline
210
0.0
220
0.0
230
1.0
 70
     8
 71
     3
 72
    18
 73
    14
 74
     0
 42
0.000000001
 43
0.0000000001
 40
0.0
 40
0.0
 40
0.0
 40
0.0
 40
0.1522013460459859
 40
0.1522013460459859
 40
0.3271873247335861
 40
0.3271873247335861
 40
0.5021733034211894
 40
0.5021733034211894
 40
0.6763180033651074
 40
0.6763180033651074
 40
0.850462703309026
 40
0.850462703309026
 40
1.0
 40
1.0
 40
1.0
 40
1.0
 10
440.6024411625583
 20
749.00845408662
 30
0.0
 10
439.850830568428
 20
749.9546679520587
 30
0.0
 10
438.877315894126
 20
750.4260161229463
 30
0.0
 10
436.3075234818139
 20
750.4260161229463
 30
0.0
 10
435.2337940616277
 20
749.937080333742
 30
0.0
 10
433.6804655004252
 20
747.9883722242511
 30
0.0
 10
433.2939229091581
 20
746.7677915130716
 30
0.0
 10
433.2939229091581
 20
743.8482468724986
 30
0.0
 10
433.691202794627
 20
742.6417362559728
 30
0.0
 10
435.2874805326371
 20
740.7282033831152
 30
0.0
 10
436.346893560554
 20
740.2498201649008
 30
0.0
 10
438.7949966385784
 20
740.2498201649008
 30
0.0
 10
439.7362994302749
 20
740.6824755754918
 30
0.0
 10
440.4807518282706
 20
741.5548214440004
 30
0.0
  0
SPLINE
  5
133
330
1F
100
AcDbEntity
  8
1
  6
Continuous
 62
    30
370
    18
100
AcDbSpline
210
0.0
220
0.0
230
1.0
 70
     8
 71
     3
 72
    10
 73
     6
 74
     0
 42
0.000000001
 43
0.0000000001
 40
0.0
 40
0.0
 40
0.0
 40
0.0
 40
0.5000000000000122
 40
0.5000000000000122
 40
1.0
 40
1.0
 40
1.0
 40
1.0
 10
440.4807518282706
 20
741.5548214440004
 30
0.0
 10
440.4807518282706
 20
740.654335386185
 30
0.0
 10
440.4342235533958
 20
739.9473131298535
 30
0.0
 10
440.2481104538969
 20
738.9201962201579
 30
0.0
 10
439.9939944911195
 20
738.487540809567
 30
0.0
 10
439.5823982133815
 20
738.1287533959062
 30
0.0
  0
SPLINE
  5
134
330
1F
100
AcDbEntity
  8
1
  6
Continuous
 62
    30
370
    18
100
AcDbSpline
210
0.0
220
0.0
230
1.0
 70
     8
 71
     3
 72
    14
 73
    10
 74
     0
 42
0.000000001
 43
0.0000000001
 40
0.0
 40
0.0
 40
0.0
 40
0.0
 40
0.2525234868058105
 40
0.2525234868058105
 40
0.5073016476009592
 40
0.5073016476009592
 40
0.7605240019910653
 40
0.7605240019910653
 40
1.0
 40
1.0
 40
1.0
 40
1.0
 10
393.4836151067244
 20
742.3849570285488
 30
0.0
 10
392.9574876908332
 20
741.7306976271674
 30
0.0
 10
392.2953545483851
 20
741.4035679264767
 30
0.0
 10
390.6847604181059
 20
741.4035679264767
 30
0.0
 10
390.0297854717924
 20
741.7201450561774
 30
0.0
 10
389.0235614863722
 20
742.9966143446712
 30
0.0
 10
388.7735220501746
 20
743.9326674404189
 30
0.0
 10
388.7735220501746
 20
746.3281010551541
 30
0.0
 10
389.0347962090866
 20
747.2743149205928
 30
0.0
 10
389.5609236249778
 20
748.0059598425678
 30
0.0
  0
SPLINE
  5
135
330
1F
100
AcDbEntity
  8
1
  6
Continuous
 62
    30
370
    18
100
AcDbSpline
210
0.0
220
0.0
230
1.0
 70
     8
 71
     3
 72
    12
 73
     8
 74
     0
 42
0.000000001
 43
0.0000000001
 40
0.0
 40
0.0
 40
0.0
 40
0.0
 40
0.3610286924373484
 40
0.3610286924373484
 40
0.6814416569754974
 40
0.6814416569754974
 40
1.0
 40
1.0
 40
1.0
 40
1.0
 10
434.7828277051496
 20
736.9679705870037
 30
0.0
 10
435.5451755934817
 20
736.4649647031459
 30
0.0
 10
436.5007947774474
 20
736.2152205230487
 30
0.0
 10
438.6625700100888
 20
736.2152205230487
 30
0.0
 10
439.5358699385068
 20
736.4086843245325
 30
0.0
 10
440.999053239861
 20
737.1873145945478
 30
0.0
 10
441.5115320716492
 20
737.7277556982854
 30
0.0
 10
441.7978599170322
 20
738.4242253836269
 30
0.0
  0
SPLINE
  5
136
330
1F
100
AcDbEntity
  8
1
  6
Continuous
 62
    30
370
    18
100
AcDbSpline
210
0.0
220
0.0
230
1.0
 70
     8
 71
     3
 72
     8
 73
     4
 74
     0
 42
0.000000001
 43
0.0000000001
 40
0.0
 40
0.0
 40
0.0
 40
0.0
 40
1.0
 40
1.0
 40
1.0
 40
1.0
 10
429.2423838969892
 20
748.297914306625
 30
0.0
 10
429.3962851138826
 20
748.0727927921712
 30
0.0
 10
429.4929207616993
 20
747.8547063250442
 30
0.0
 10
429.5251326443049
 20
747.6436549052437
 30
0.0
  0
SPLINE
  5
137
330
1F
100
AcDbEntity
  8
1
  6
Continuous
 62
    30
370
    18
100
AcDbSpline
210
0.0
220
0.0
230
1.0
 70
     8
 71
     3
 72
     8
 73
     4
 74
     0
 42
0.000000001
 43
0.0000000001
 40
0.0
 40
0.0
 40
0.0
 40
0.0
 40
1.0
 40
1.0
 40
1.0
 40
1.0
 10
429.5716609191796
 20
746.5708101879246
 30
0.0
 10
429.1815392298454
 20
746.4336267650543
 30
0.0
 10
428.691202794627
 20
746.317548484164
 30
0.0
 10
428.0934934173901
 20
746.2260928689172
 30
0.0
  0
SPLINE
  5
138
330
1F
100
AcDbEntity
  8
1
  6
Continuous
 62
    30
370
    18
100
AcDbSpline
210
0.0
220
0.0
230
1.0
 70
     8
 71
     3
 72
    12
 73
     8
 74
     0
 42
0.000000001
 43
0.0000000001
 40
0.0
 40
0.0
 40
0.0
 40
0.0
 40
0.2012383900928821
 40
0.2012383900928821
 40
0.6006191950464422
 40
0.6006191950464422
 40
1.0
 40
1.0
 40
1.0
 40
1.0
 10
424.8579887645626
 20
741.7940130531075
 30
0.0
 10
424.5072371539685
 20
742.0894850408282
 30
0.0
 10
424.3318613486714
 20
742.4658600728056
 30
0.0
 10
424.3318613486714
 20
743.8306592541819
 30
0.0
 10
424.9796780988504
 20
744.3688403746731
 30
0.0
 10
427.5781032957008
 20
744.7135576936805
 30
0.0
 10
428.6733073042906
 20
744.9457142554611
 30
0.0
 10
429.5716609191796
 20
745.2411862431817
 30
0.0
  0
SPLINE
  5
139
330
1F
100
AcDbEntity
  8
1
  6
Continuous
 62
    30
370
    18
100
AcDbSpline
210
0.0
220
0.0
230
1.0
 70
     8
 71
     3
 72
    10
 73
     6
 74
     0
 42
0.000000001
 43
0.0000000001
 40
0.0
 40
0.0
 40
0.0
 40
0.0
 40
0.329498767460969
 40
0.329498767460969
 40
1.0
 40
1.0
 40
1.0
 40
1.0
 10
441.7978599170322
 20
738.4242253836269
 30
0.0
 10
442.0841877624151
 20
739.1242125926317
 30
0.0
 10
442.2273516851066
 20
740.179469691634
 30
0.0
 10
442.2273516851066
 20
744.46029598992
 30
0.0
 10
442.2273516851066
 20
747.3305952992063
 30
0.0
 10
442.2273516851066
 20
750.2008946084926
 30
0.0
  0
SPLINE
  5
13A
330
1F
100
AcDbEntity
  8
1
  6
Continuous
 62
    30
370
    18
100
AcDbSpline
210
0.0
220
0.0
230
1.0
 70
     8
 71
     3
 72
    10
 73
     6
 74
     0
 42
0.000000001
 43
0.0000000001
 40
0.0
 40
0.0
 40
0.0
 40
0.0
 40
0.146095717884127
 40
0.146095717884127
 40
1.0
 40
1.0
 40
1.0
 40
1.0
 10
429.5716609191796
 20
745.2411862431817
 30
0.0
 10
429.5716609191796
 20
745.0371698707079
 30
0.0
 10
429.5716609191796
 20
744.8331534982342
 30
0.0
 10
429.5716609191796
 20
743.4366966038878
 30
0.0
 10
429.2495420931238
 20
742.5889734010226
 30
0.0
 10
428.6017253429449
 20
742.0930025644915
 30
0.0
  0
SPLINE
  5
13B
330
1F
100
AcDbEntity
  8
1
  6
Continuous
 62
    30
370
    18
100
AcDbSpline
210
0.0
220
0.0
230
1.0
 70
     8
 71
     3
 72
    10
 73
     6
 74
     0
 42
0.000000001
 43
0.0000000001
 40
0.0
 40
0.0
 40
0.0
 40
0.0
 40
0.4694444444444416
 40
0.4694444444444416
 40
1.0
 40
1.0
 40
1.0
 40
1.0
 10
439.8114604896879
 20
748.0938979341513
 30
0.0
 10
440.3519042978483
 20
747.4607436747499
 30
0.0
 10
440.6239157509621
 20
746.5497050459446
 30
0.0
 10
440.6239157509621
 20
744.017088008339
 30
0.0
 10
440.3375879055791
 20
743.0568040482469
 30
0.0
 10
439.7720904109477
 20
742.4869652147856
 30
0.0
  0
SPLINE
  5
13C
330
1F
100
AcDbEntity
  8
1
  6
Continuous
 62
    30
370
    18
100
AcDbSpline
210
0.0
220
0.0
230
1.0
 70
     8
 71
     3
 72
    18
 73
    14
 74
     0
 42
0.000000001
 43
0.0000000001
 40
0.0
 40
0.0
 40
0.0
 40
0.0
 40
0.1704960286494758
 40
0.1704960286494758
 40
0.3509723126345314
 40
0.3509723126345314
 40
0.5325695452974931
 40
0.5325695452974931
 40
0.6897585477638204
 40
0.6897585477638204
 40
0.8469475502301519
 40
0.8469475502301519
 40
1.0
 40
1.0
 40
1.0
 40
1.0
 10
439.7720904109477
 20
742.4869652147856
 30
0.0
 10
439.2065929163164
 20
741.9136088576612
 30
0.0
 10
438.5587761661374
 20
741.6286894409304
 30
0.0
 10
437.0483967817423
 20
741.6286894409304
 30
0.0
 10
436.3934218354287
 20
741.9311964759778
 30
0.0
 10
435.316357917359
 20
743.137925498812
 30
0.0
 10
435.0476809621288
 20
744.0909560052693
 30
0.0
 10
435.0476809621288
 20
746.5321174276279
 30
0.0
 10
435.3053760229735
 20
747.4220509144532
 30
0.0
 10
436.3289980702176
 20
748.7235346698893
 30
0.0
 10
436.9911312126657
 20
749.0471468469167
 30
0.0
 10
438.6017253429449
 20
749.0471468469167
 30
0.0
 10
439.2710166815276
 20
748.730569717216
 30
0.0
 10
439.8114604896879
 20
748.0938979341513
 30
0.0
  0
SPLINE
  5
13D
330
1F
100
AcDbEntity
  8
1
  6
Continuous
 62
    30
370
    18
100
AcDbSpline
210
0.0
220
0.0
230
1.0
 70
     8
 71
     3
 72
     8
 73
     4
 74
     0
 42
0.000000001
 43
0.0000000001
 40
0.0
 40
0.0
 40
0.0
 40
0.0
 40
1.0
 40
1.0
 40
1.0
 40
1.0
 10
435.9782464596234
 20
737.9880524493726
 30
0.0
 10
435.5952829664237
 20
738.2518667241231
 30
0.0
 10
435.3697997881847
 20
738.6458293744173
 30
0.0
 10
435.3053760229735
 20
739.1699404002552
 30
0.0
  0
SPLINE
  5
13E
330
1F
100
AcDbEntity
  8
1
  6
Continuous
 62
    30
370
    13
100
AcDbSpline
210
0.0
220
0.0
230
1.0
 70
     8
 71
     3
 72
    30
 73
    26
 74
     0
 42
0.000000001
 43
0.0000000001
 40
0.0
 40
0.0
 40
0.0
 40
0.0
 40
0.0625000000000002
 40
0.0625000000000002
 40
0.1250000000000004
 40
0.1250000000000004
 40
0.1875000000000007
 40
0.1875000000000007
 40
0.2500000000000009
 40
0.2500000000000009
 40
0.3125000000000011
 40
0.3125000000000011
 40
0.3750000000000013
 40
0.3750000000000013
 40
0.4375000000000016
 40
0.4375000000000016
 40
0.5000000000000018
 40
0.5000000000000018
 40
0.6250000000000013
 40
0.6250000000000013
 40
0.7500000000000009
 40
0.7500000000000009
 40
0.8750000000000004
 40
0.8750000000000004
 40
1.0
 40
1.0
 40
1.0
 40
1.0
 10
347.8262717369305
 20
532.4331534982343
 30
0.0
 10
347.8519428203568
 20
532.6832799576567
 30
0.0
 10
347.8724127671818
 20
532.9332655682858
 30
0.0
 10
347.9020806560665
 20
533.4329315392899
 30
0.0
 10
347.9112768673685
 20
533.6826118527953
 30
0.0
 10
347.9182830418863
 20
534.1816641357985
 30
0.0
 10
347.9160947828839
 20
534.4310361534394
 30
0.0
 10
347.9009828232045
 20
534.9294894688035
 30
0.0
 10
347.8880638077978
 20
535.1785708934054
 30
0.0
 10
347.85280602092
 20
535.6764786519674
 30
0.0
 10
347.8304735367707
 20
535.9253051561905
 30
0.0
 10
347.7781993156931
 20
536.4227521031247
 30
0.0
 10
347.7482640255993
 20
536.6713727204187
 30
0.0
 10
347.6828930377818
 20
537.168465001838
 30
0.0
 10
347.6474780053579
 20
537.4168233423418
 30
0.0
 10
347.5734309654773
 20
537.9131009335822
 30
0.0
 10
347.5347963958535
 20
538.1610666560276
 30
0.0
 10
347.417291596147
 20
538.9047918200565
 30
0.0
 10
347.3369100213151
 20
539.4003888996492
 30
0.0
 10
347.1876189203979
 20
540.3928154875535
 30
0.0
 10
347.1187050630065
 20
540.8896445305581
 30
0.0
 10
347.0052079525031
 20
541.8859164248008
 30
0.0
 10
346.960589922443
 20
542.3853555399922
 30
0.0
 10
346.9064261139774
 20
543.3880015411663
 30
0.0
 10
346.8968316925781
 20
543.8912032014894
 30
0.0
 10
346.909734234578
 20
544.3968216841603
 30
0.0
  0
SPLINE
  5
13F
330
1F
100
AcDbEntity
  8
1
  6
Continuous
 62
    30
370
    18
100
AcDbSpline
210
0.0
220
0.0
230
1.0
 70
     8
 71
     3
 72
     8
 73
     4
 74
     0
 42
0.000000001
 43
0.0000000001
 40
0.0
 40
0.0
 40
0.0
 40
0.0
 40
1.0
 40
1.0
 40
1.0
 40
1.0
 10
433.6375163236177
 20
739.4232021040157
 30
0.0
 10
433.6375163236177
 20
738.2870419607566
 30
0.0
 10
434.0169007187502
 20
737.4674589471981
 30
0.0
 10
434.7828277051496
 20
736.9679705870037
 30
0.0
  0
SPLINE
  5
140
330
1F
100
AcDbEntity
  8
1
  6
Continuous
 62
    30
370
    18
100
AcDbSpline
210
0.0
220
0.0
230
1.0
 70
     8
 71
     3
 72
    14
 73
    10
 74
     0
 42
0.000000001
 43
0.0000000001
 40
0.0
 40
0.0
 40
0.0
 40
0.0
 40
0.2301392948363491
 40
0.2301392948363491
 40
0.4920741501435097
 40
0.4920741501435097
 40
0.7540090054506698
 40
0.7540090054506698
 40
1.0
 40
1.0
 40
1.0
 40
1.0
 10
388.9918470322792
 20
741.2910071692497
 30
0.0
 10
389.6468219785927
 20
740.4397664427213
 30
0.0
 10
390.5201219070107
 20
740.014146079457
 30
0.0
 10
392.8465356507473
 20
740.014146079457
 30
0.0
 10
393.8952113844624
 20
740.4925292976714
 30
0.0
 10
395.598862064491
 20
742.3990271232021
 30
0.0
 10
396.0247747344982
 20
743.686440783985
 30
0.0
 10
396.0247747344982
 20
746.8240718916852
 30
0.0
 10
395.6418112412985
 20
748.0587226975179
 30
0.0
 10
394.8723051568318
 20
749.0049365629566
 30
0.0
  0
SPLINE
  5
141
330
1F
100
AcDbEntity
  8
1
  6
Continuous
 62
    30
370
    18
100
AcDbSpline
210
0.0
220
0.0
230
1.0
 70
     8
 71
     3
 72
     8
 73
     4
 74
     0
 42
0.000000001
 43
0.0000000001
 40
0.0
 40
0.0
 40
0.0
 40
0.0
 40
1.0
 40
1.0
 40
1.0
 40
1.0
 10
394.8723051568318
 20
749.0049365629566
 30
0.0
 10
394.0992199742977
 20
749.9511504283953
 30
0.0
 10
393.0505442405827
 20
750.4260161229463
 30
0.0
 10
391.7226988576192
 20
750.4260161229463
 30
0.0
  0
SPLINE
  5
142
330
1F
100
AcDbEntity
  8
1
  6
Continuous
 62
    30
370
    18
100
AcDbSpline
210
0.0
220
0.0
230
1.0
 70
     8
 71
     3
 72
     8
 73
     4
 74
     0
 42
0.000000001
 43
0.0000000001
 40
0.0
 40
0.0
 40
0.0
 40
0.0
 40
1.0
 40
1.0
 40
1.0
 40
1.0
 10
391.7226988576192
 20
750.4260161229463
 30
0.0
 10
390.4378026514631
 20
750.4260161229463
 30
0.0
 10
389.4714461732956
 20
749.9230102390886
 30
0.0
 10
388.8307876192512
 20
748.9169984713731
 30
0.0
  0
SPLINE
  5
143
330
1F
100
AcDbEntity
  8
1
  6
Continuous
 62
    30
370
    18
100
AcDbSpline
210
0.0
220
0.0
230
1.0
 70
     8
 71
     3
 72
    10
 73
     6
 74
     0
 42
0.000000001
 43
0.0000000001
 40
0.0
 40
0.0
 40
0.0
 40
0.0
 40
0.5632458233890203
 40
0.5632458233890203
 40
1.0
 40
1.0
 40
1.0
 40
1.0
 10
428.6017253429449
 20
742.0930025644915
 30
0.0
 10
427.9574876908332
 20
741.5935142042971
 30
0.0
 10
427.2094561947702
 20
741.3472875478633
 30
0.0
 10
425.7098141045769
 20
741.3472875478633
 30
0.0
 10
425.2051612770895
 20
741.4950235417236
 30
0.0
 10
424.8579887645626
 20
741.7940130531075
 30
0.0
  0
SPLINE
  5
144
330
1F
100
AcDbEntity
  8
1
  6
Continuous
 62
    30
370
    18
100
AcDbSpline
210
0.0
220
0.0
230
1.0
 70
     8
 71
     3
 72
     8
 73
     4
 74
     0
 42
0.000000001
 43
0.0000000001
 40
0.0
 40
0.0
 40
0.0
 40
0.0
 40
1.0
 40
1.0
 40
1.0
 40
1.0
 10
406.8766000745125
 20
744.7979782616007
 30
0.0
 10
406.8766000745125
 20
746.3808639101042
 30
0.0
 10
406.6368005040043
 20
747.5557168136601
 30
0.0
 10
406.1607804610551
 20
748.3190194486051
 30
0.0
  0
SPLINE
  5
145
330
1F
100
AcDbEntity
  8
1
  6
Continuous
 62
    30
370
    18
100
AcDbSpline
210
0.0
220
0.0
230
1.0
 70
     8
 71
     3
 72
     8
 73
     4
 74
     0
 42
0.000000001
 43
0.0000000001
 40
0.0
 40
0.0
 40
0.0
 40
0.0
 40
1.0
 40
1.0
 40
1.0
 40
1.0
 10
429.5251326443049
 20
747.6436549052437
 30
0.0
 10
429.5537654288432
 20
747.4361210091065
 30
0.0
 10
429.5716609191796
 20
747.0773335954457
 30
0.0
 10
429.5716609191796
 20
746.5708101879246
 30
0.0
  0
SPLINE
  5
146
330
1F
100
AcDbEntity
  8
1
  6
Continuous
 62
    30
370
    18
100
AcDbSpline
210
0.0
220
0.0
230
1.0
 70
     8
 71
     3
 72
    10
 73
     6
 74
     0
 42
0.000000001
 43
0.0000000001
 40
0.0
 40
0.0
 40
0.0
 40
0.0
 40
0.5704697986577181
 40
0.5704697986577181
 40
1.0
 40
1.0
 40
1.0
 40
1.0
 10
398.8164712269821
 20
741.3894978318233
 30
0.0
 10
399.6718756650637
 20
740.4714241556912
 30
0.0
 10
400.860136223403
 20
740.014146079457
 30
0.0
 10
403.5265642835319
 20
740.014146079457
 30
0.0
 10
404.4821834674975
 20
740.2920304488609
 30
0.0
 10
405.2445313558296
 20
740.8513167113322
 30
0.0
  0
SPLINE
  5
147
330
1F
100
AcDbEntity
  8
1
  6
Continuous
 62
    30
370
    18
100
AcDbSpline
210
0.0
220
0.0
230
1.0
 70
     8
 71
     3
 72
     8
 73
     4
 74
     0
 42
0.000000001
 43
0.0000000001
 40
0.0
 40
0.0
 40
0.0
 40
0.0
 40
1.0
 40
1.0
 40
1.0
 40
1.0
 10
429.6861920573328
 20
741.4774359234068
 30
0.0
 10
429.7541949206113
 20
740.9709125158857
 30
0.0
 10
429.8723051568318
 20
740.5628797709381
 30
0.0
 10
430.0405227659942
 20
740.2498201649008
 30
0.0
  0
SPLINE
  5
148
330
1F
100
AcDbEntity
  8
1
  6
Continuous
 62
    30
370
    18
100
AcDbSpline
210
0.0
220
0.0
230
1.0
 70
     8
 71
     3
 72
     8
 73
     4
 74
     0
 42
0.000000001
 43
0.0000000001
 40
0.0
 40
0.0
 40
0.0
 40
0.0
 40
1.0
 40
1.0
 40
1.0
 40
1.0
 10
431.8443881919069
 20
740.2498201649008
 30
0.0
 10
431.583114032995
 20
740.7000631938084
 30
0.0
 10
431.4256337180344
 20
741.1608587937062
 30
0.0
 10
431.371947247025
 20
741.6322069645938
 30
0.0
  0
SPLINE
  5
149
330
1F
100
AcDbEntity
  8
1
  6
Continuous
 62
    30
370
    18
100
AcDbSpline
210
0.0
220
0.0
230
1.0
 70
     8
 71
     3
 72
     8
 73
     4
 74
     0
 42
0.000000001
 43
0.0000000001
 40
0.0
 40
0.0
 40
0.0
 40
0.0
 40
1.0
 40
1.0
 40
1.0
 40
1.0
 10
424.4750252713629
 20
747.1441665450492
 30
0.0
 10
424.6325055863235
 20
747.8758114670242
 30
0.0
 10
424.9295707259084
 20
748.3752998272186
 30
0.0
 10
425.3590624939828
 20
748.6426316256325
 30
0.0
  0
SPLINE
  5
14A
330
1F
100
AcDbEntity
  8
1
  6
Continuous
 62
    30
370
    18
100
AcDbSpline
210
0.0
220
0.0
230
1.0
 70
     8
 71
     3
 72
     8
 73
     4
 74
     0
 42
0.000000001
 43
0.0000000001
 40
0.0
 40
0.0
 40
0.0
 40
0.0
 40
1.0
 40
1.0
 40
1.0
 40
1.0
 10
405.2445313558296
 20
740.8513167113322
 30
0.0
 10
406.0068792441617
 20
741.40708545014
 30
0.0
 10
406.5330066600529
 20
742.2020457980551
 30
0.0
 10
406.8193345054359
 20
743.243232802404
 30
0.0
  0
SPLINE
  5
14B
330
1F
100
AcDbEntity
  8
1
  6
Continuous
 62
    30
370
    18
100
AcDbSpline
210
0.0
220
0.0
230
1.0
 70
     8
 71
     3
 72
    12
 73
     8
 74
     0
 42
0.000000001
 43
0.0000000001
 40
0.0
 40
0.0
 40
0.0
 40
0.0
 40
0.4723557692307743
 40
0.4723557692307743
 40
0.730769230769235
 40
0.730769230769235
 40
1.0
 40
1.0
 40
1.0
 40
1.0
 10
431.371947247025
 20
741.6322069645938
 30
0.0
 10
431.3146816779484
 20
742.1035551354815
 30
0.0
 10
431.2896279914775
 20
743.0321813826035
 30
0.0
 10
431.2896279914775
 20
745.1708357699149
 30
0.0
 10
431.2896279914775
 20
745.9271033575332
 30
0.0
 10
431.2896279914775
 20
747.47129624574
 30
0.0
 10
431.2252042262663
 20
748.1150030761313
 30
0.0
 10
431.0927775977767
 20
748.6144914363258
 30
0.0
  0
SPLINE
  5
14C
330
1F
100
AcDbEntity
  8
1
  6
Continuous
 62
    30
370
    18
100
AcDbSpline
210
0.0
220
0.0
230
1.0
 70
     8
 71
     3
 72
     8
 73
     4
 74
     0
 42
0.000000001
 43
0.0000000001
 40
0.0
 40
0.0
 40
0.0
 40
0.0
 40
1.0
 40
1.0
 40
1.0
 40
1.0
 10
405.0548391582634
 20
743.4578017458678
 30
0.0
 10
404.8186186858225
 20
742.768367107853
 30
0.0
 10
404.4786043694302
 20
742.2548086530052
 30
0.0
 10
404.0312171110193
 20
741.9136088576612
 30
0.0
  0
SPLINE
  5
14D
330
1F
100
AcDbEntity
  8
1
  6
Continuous
 62
    30
370
    18
100
AcDbSpline
210
0.0
220
0.0
230
1.0
 70
     8
 71
     3
 72
     8
 73
     4
 74
     0
 42
0.000000001
 43
0.0000000001
 40
0.0
 40
0.0
 40
0.0
 40
0.0
 40
1.0
 40
1.0
 40
1.0
 40
1.0
 10
428.4943524009262
 20
748.8396129507796
 30
0.0
 10
428.8379458153858
 20
748.7024295279093
 30
0.0
 10
429.0849035820286
 20
748.5230358210789
 30
0.0
 10
429.2423838969892
 20
748.297914306625
 30
0.0
  0
SPLINE
  5
14E
330
1F
100
AcDbEntity
  8
1
  6
Continuous
 62
    30
370
    18
100
AcDbSpline
210
0.0
220
0.0
230
1.0
 70
     8
 71
     3
 72
     8
 73
     4
 74
     0
 42
0.000000001
 43
0.0000000001
 40
0.0
 40
0.0
 40
0.0
 40
0.0
 40
1.0
 40
1.0
 40
1.0
 40
1.0
 10
424.2173302105182
 20
749.6556784406747
 30
0.0
 10
423.4549823221861
 20
749.1456375094903
 30
0.0
 10
422.9789622792369
 20
748.378817350882
 30
0.0
 10
422.7964282778053
 20
747.358735488513
 30
0.0
  0
SPLINE
  5
14F
330
1F
100
AcDbEntity
  8
1
  6
Continuous
 62
    30
370
    18
100
AcDbSpline
210
0.0
220
0.0
230
1.0
 70
     8
 71
     3
 72
    10
 73
     6
 74
     0
 42
0.000000001
 43
0.0000000001
 40
0.0
 40
0.0
 40
0.0
 40
0.0
 40
0.4346793349168641
 40
0.4346793349168641
 40
1.0
 40
1.0
 40
1.0
 40
1.0
 10
404.0312171110193
 20
741.9136088576612
 30
0.0
 10
403.5874089506757
 20
741.5724090623171
 30
0.0
 10
403.0362278483135
 20
741.4035679264767
 30
0.0
 10
401.5294275619856
 20
741.4035679264767
 30
0.0
 10
400.8171870465956
 20
741.6920048668707
 30
0.0
 10
400.2481104538969
 20
742.2759137949853
 30
0.0
  0
SPLINE
  5
150
330
1F
100
AcDbEntity
  8
1
  6
Continuous
 62
    30
370
    18
100
AcDbSpline
210
0.0
220
0.0
230
1.0
 70
     8
 71
     3
 72
     8
 73
     4
 74
     0
 42
0.000000001
 43
0.0000000001
 40
0.0
 40
0.0
 40
0.0
 40
0.0
 40
1.0
 40
1.0
 40
1.0
 40
1.0
 10
414.6933502534674
 20
747.9109867036575
 30
0.0
 10
414.6933502534674
 20
747.8617413723707
 30
0.0
 10
414.7541949206113
 20
747.5697869083135
 30
0.0
 10
414.8830424510336
 20
747.0316057878223
 30
0.0
  0
SPLINE
  5
151
330
1F
100
AcDbEntity
  8
1
  6
Continuous
 62
    30
370
    18
100
AcDbSpline
210
0.0
220
0.0
230
1.0
 70
     8
 71
     3
 72
     8
 73
     4
 74
     0
 42
0.000000001
 43
0.0000000001
 40
0.0
 40
0.0
 40
0.0
 40
0.0
 40
1.0
 40
1.0
 40
1.0
 40
1.0
 10
400.2481104538969
 20
742.2759137949853
 30
0.0
 10
399.6790338611983
 20
742.8563051994365
 30
0.0
 10
399.3604941332097
 20
743.696993354975
 30
0.0
 10
399.288912171864
 20
744.7979782616007
 30
0.0
  0
SPLINE
  5
152
330
1F
100
AcDbEntity
  8
1
  6
Continuous
 62
    30
370
    18
100
AcDbSpline
210
0.0
220
0.0
230
1.0
 70
     8
 71
     3
 72
    14
 73
    10
 74
     0
 42
0.000000001
 43
0.0000000001
 40
0.0
 40
0.0
 40
0.0
 40
0.0
 40
0.2283584819140888
 40
0.2283584819140888
 40
0.4664343460372897
 40
0.4664343460372897
 40
0.703045305681468
 40
0.703045305681468
 40
1.0
 40
1.0
 40
1.0
 40
1.0
 10
423.390558556975
 20
744.924609113481
 30
0.0
 10
422.7964282778053
 20
744.3899455166531
 30
0.0
 10
422.4993631382205
 20
743.7110634496283
 30
0.0
 10
422.4993631382205
 20
742.0226520912247
 30
0.0
 10
422.8071655720071
 20
741.3296999295465
 30
0.0
 10
424.0417236027429
 20
740.2776893815051
 30
0.0
 10
424.8866215491009
 20
740.014146079457
 30
0.0
 10
427.2917754503178
 20
740.014146079457
 30
0.0
 10
428.5337224796664
 20
740.5030818686614
 30
0.0
 10
429.6861920573328
 20
741.4774359234068
 30
0.0
  0
SPLINE
  5
153
330
1F
100
AcDbEntity
  8
1
  6
Continuous
 62
    30
370
    18
100
AcDbSpline
210
0.0
220
0.0
230
1.0
 70
     8
 71
     3
 72
     8
 73
     4
 74
     0
 42
0.000000001
 43
0.0000000001
 40
0.0
 40
0.0
 40
0.0
 40
0.0
 40
1.0
 40
1.0
 40
1.0
 40
1.0
 10
417.6317897667101
 20
742.5397280697358
 30
0.0
 10
417.5924196879699
 20
742.7331918712196
 30
0.0
 10
417.3848320000673
 20
743.5492573611147
 30
0.0
 10
417.0018685068675
 20
744.9879245394211
 30
0.0
  0
SPLINE
  5
154
330
1F
100
AcDbEntity
  8
1
  6
Continuous
 62
    30
370
    18
100
AcDbSpline
210
0.0
220
0.0
230
1.0
 70
     8
 71
     3
 72
    10
 73
     6
 74
     0
 42
0.000000001
 43
0.0000000001
 40
0.0
 40
0.0
 40
0.0
 40
0.0
 40
0.5597826086956532
 40
0.5597826086956532
 40
1.0
 40
1.0
 40
1.0
 40
1.0
 10
425.3590624939828
 20
748.6426316256325
 30
0.0
 10
425.7885542620572
 20
748.9134809477098
 30
0.0
 10
426.371947247025
 20
749.0471468469167
 30
0.0
 10
427.6890553357867
 20
749.0471468469167
 30
0.0
 10
428.1507589864667
 20
748.9803138973132
 30
0.0
 10
428.4943524009262
 20
748.8396129507796
 30
0.0
  0
SPLINE
  5
155
330
1F
100
AcDbEntity
  8
1
  6
Continuous
 62
    30
370
    18
100
AcDbSpline
210
0.0
220
0.0
230
1.0
 70
     8
 71
     3
 72
     8
 73
     4
 74
     0
 42
0.000000001
 43
0.0000000001
 40
0.0
 40
0.0
 40
0.0
 40
0.0
 40
1.0
 40
1.0
 40
1.0
 40
1.0
 10
431.0927775977767
 20
748.6144914363258
 30
0.0
 10
430.9639300673543
 20
749.1174973201835
 30
0.0
 10
430.6131784567602
 20
749.5431176834478
 30
0.0
 10
430.0441018640615
 20
749.8948700497818
 30
0.0
  0
SPLINE
  5
156
330
1F
100
AcDbEntity
  8
1
  6
Continuous
 62
    30
370
    18
100
AcDbSpline
210
0.0
220
0.0
230
1.0
 70
     8
 71
     3
 72
    10
 73
     6
 74
     0
 42
0.000000001
 43
0.0000000001
 40
0.0
 40
0.0
 40
0.0
 40
0.0
 40
0.4761235955056171
 40
0.4761235955056171
 40
1.0
 40
1.0
 40
1.0
 40
1.0
 10
430.0441018640615
 20
749.8948700497818
 30
0.0
 10
429.4750252713629
 20
750.2501399397793
 30
0.0
 10
428.5802507545411
 20
750.4260161229463
 30
0.0
 10
426.0319329306328
 20
750.4260161229463
 30
0.0
 10
424.9796780988504
 20
750.1692368955224
 30
0.0
 10
424.2173302105182
 20
749.6556784406747
 30
0.0
  0
SPLINE
  5
157
330
1F
100
AcDbEntity
  8
1
  6
Continuous
 62
    30
370
    18
100
AcDbSpline
210
0.0
220
0.0
230
1.0
 70
     8
 71
     3
 72
     8
 73
     4
 74
     0
 42
0.000000001
 43
0.0000000001
 40
0.0
 40
0.0
 40
0.0
 40
0.0
 40
1.0
 40
1.0
 40
1.0
 40
1.0
 10
426.4900574832455
 20
745.9904187834734
 30
0.0
 10
425.0190481775905
 20
745.8145426003064
 30
0.0
 10
423.9882679342119
 20
745.4592727103088
 30
0.0
 10
423.390558556975
 20
744.924609113481
 30
0.0
  0
SPLINE
  5
158
330
1F
100
AcDbEntity
  8
1
  6
Continuous
 62
    30
370
    18
100
AcDbSpline
210
0.0
220
0.0
230
1.0
 70
     8
 71
     3
 72
     8
 73
     4
 74
     0
 42
0.000000001
 43
0.0000000001
 40
0.0
 40
0.0
 40
0.0
 40
0.0
 40
1.0
 40
1.0
 40
1.0
 40
1.0
 10
414.8830424510336
 20
747.0316057878223
 30
0.0
 10
415.0083108833887
 20
746.493424667331
 30
0.0
 10
415.0763137466671
 20
746.2225753452539
 30
0.0
 10
415.0834719428017
 20
746.2260928689172
 30
0.0
  0
SPLINE
  5
159
330
1F
100
AcDbEntity
  8
1
  6
Continuous
 62
    30
370
    18
100
AcDbSpline
210
0.0
220
0.0
230
1.0
 70
     8
 71
     3
 72
    16
 73
    12
 74
     0
 42
0.000000001
 43
0.0000000001
 40
0.0
 40
0.0
 40
0.0
 40
0.0
 40
0.1225706265942337
 40
0.1225706265942337
 40
0.2451412531884676
 40
0.2451412531884676
 40
0.4956375337524119
 40
0.4956375337524119
 40
0.7461338143163598
 40
0.7461338143163598
 40
1.0
 40
1.0
 40
1.0
 40
1.0
 10
406.1607804610551
 20
748.3190194486051
 30
0.0
 10
405.6847604181059
 20
749.0858396072135
 30
0.0
 10
405.1013674331381
 20
749.6275382513679
 30
0.0
 10
403.7341519714345
 20
750.267727558096
 30
0.0
 10
403.0219114560443
 20
750.4260161229463
 30
0.0
 10
400.7778169678554
 20
750.4260161229463
 30
0.0
 10
399.6074518998525
 20
749.937080333742
 30
0.0
 10
397.9467503966313
 20
747.9883722242511
 30
0.0
 10
397.531575020826
 20
746.7150286581216
 30
0.0
 10
397.531575020826
 20
743.5562924084413
 30
0.0
 10
397.9610667889005
 20
742.304053984292
 30
0.0
 10
398.8164712269821
 20
741.3894978318233
 30
0.0
  0
SPLINE
  5
15A
330
1F
100
AcDbEntity
  8
1
  6
Continuous
 62
    30
370
    18
100
AcDbSpline
210
0.0
220
0.0
230
1.0
 70
     8
 71
     3
 72
   111
 73
   107
 74
     0
 42
0.000000001
 43
0.0000000001
 40
0.0
 40
0.0
 40
0.0
 40
0.0
 40
0.0312500000000243
 40
0.0312500000000243
 40
0.0625000000000485
 40
0.0625000000000485
 40
0.0703125000000526
 40
0.0703125000000526
 40
0.0781250000000567
 40
0.0781250000000567
 40
0.0937500000000642
 40
0.0937500000000642
 40
0.1250000000000872
 40
0.1250000000000872
 40
0.1406250000001028
 40
0.1406250000001028
 40
0.1562500000001183
 40
0.1562500000001183
 40
0.1875000000001409
 40
0.2187500000001636
 40
0.2187500000001636
 40
0.2265625000001712
 40
0.2265625000001712
 40
0.2343750000001789
 40
0.250000000000194
 40
0.250000000000194
 40
0.2812500000002239
 40
0.2812500000002239
 40
0.2968750000002386
 40
0.2968750000002386
 40
0.3046875000002462
 40
0.3046875000002462
 40
0.3125000000002537
 40
0.3125000000002537
 40
0.343750000000269
 40
0.343750000000269
 40
0.3750000000002843
 40
0.3750000000002843
 40
0.3828125000002832
 40
0.3828125000002832
 40
0.390625000000282
 40
0.4062500000002862
 40
0.4062500000002862
 40
0.4375000000002946
 40
0.4375000000002946
 40
0.4531250000002993
 40
0.4531250000002993
 40
0.4609375000003
 40
0.4609375000003
 40
0.4687500000003007
 40
0.4687500000003007
 40
0.5000000000003005
 40
0.5000000000003005
 40
0.5312500000003004
 40
0.5312500000003004
 40
0.5468750000003003
 40
0.5468750000003003
 40
0.5625000000003002
 40
0.5625000000003002
 40
0.5937500000002989
 40
0.5937500000002989
 40
0.6015625000002984
 40
0.6015625000002984
 40
0.6093750000002981
 40
0.6093750000002981
 40
0.6250000000002978
 40
0.6250000000002978
 40
0.6562500000003008
 40
0.6562500000003008
 40
0.671875000000304
 40
0.671875000000304
 40
0.6796875000003056
 40
0.6796875000003056
 40
0.6875000000003072
 40
0.6875000000003072
 40
0.7187500000003031
 40
0.7187500000003031
 40
0.7500000000002989
 40
0.7500000000002989
 40
0.7578125000002929
 40
0.7578125000002929
 40
0.7656250000002869
 40
0.7812500000002751
 40
0.7812500000002751
 40
0.8125000000002518
 40
0.8125000000002518
 40
0.8281250000002359
 40
0.8281250000002359
 40
0.8359375000002283
 40
0.8359375000002283
 40
0.8437500000002205
 40
0.8437500000002205
 40
0.8750000000001817
 40
0.8750000000001817
 40
0.9062500000001429
 40
0.9062500000001429
 40
0.9140625000001332
 40
0.9140625000001332
 40
0.9218750000001236
 40
0.9375000000000951
 40
0.9375000000000951
 40
0.9687500000000474
 40
0.9687500000000474
 40
0.9843750000000238
 40
0.9843750000000238
 40
1.0
 40
1.0
 40
1.0
 40
1.0
 10
693.1107988319284
 20
753.037684425441
 30
0.0
 10
693.1107988319284
 20
753.0956229662634
 30
0.0
 10
693.1117848443779
 20
753.1582592529991
 30
0.0
 10
693.1161770567268
 20
753.2925270859128
 30
0.0
 10
693.1195817000975
 20
753.3641598045772
 30
0.0
 10
693.1256477569563
 20
753.4594049235523
 30
0.0
 10
693.1269516242621
 20
753.4787404413797
 30
0.0
 10
693.1297488517423
 20
753.5179917777043
 30
0.0
 10
693.1312452380462
 20
753.5379436012081
 30
0.0
 10
693.1359951751247
 20
753.5982375689015
 30
0.0
 10
693.1395150493154
 20
753.6391105954965
 30
0.0
 10
693.1511564157007
 20
753.7636993300092
 30
0.0
 10
693.1603591393056
 20
753.8493753169516
 30
0.0
 10
693.1764194017985
 20
753.981749781675
 30
0.0
 10
693.1821489550127
 20
754.0265203928152
 30
0.0
 10
693.1943778279358
 20
754.1173713654478
 30
0.0
 10
693.2009021941763
 20
754.1636119375606
 30
0.0
 10
693.2213569890467
 20
754.3023655471394
 30
0.0
 10
693.2510778347772
 20
754.4883010757823
 30
0.0
 10
693.285247085784
 20
754.6760709608317
 30
0.0
 10
693.3078493217512
 20
754.7940400321093
 30
0.0
 10
693.3124407554111
 20
754.817708658319
 30
0.0
 10
693.3216896545288
 20
754.8648322854848
 30
0.0
 10
693.3356648180214
 20
754.9352157498956
 30
0.0
 10
693.3499144938004
 20
755.0047142940206
 30
0.0
 10
693.3786967766971
 20
755.1425712702273
 30
0.0
 10
693.3982638585694
 20
755.232960701363
 30
0.0
 10
693.4278327892141
 20
755.3663365430186
 30
0.0
 10
693.4377251569324
 20
755.4104258648429
 30
0.0
 10
693.452569261864
 20
755.4760024801753
 30
0.0
 10
693.4575239163846
 20
755.4977932613888
 30
0.0
 10
693.4673548868743
 20
755.5408754045873
 30
0.0
 10
693.4722391955355
 20
755.5622023000586
 30
0.0
 10
693.4964851990436
 20
755.6677829924951
 30
0.0
 10
693.515322996292
 20
755.7488911925435
 30
0.0
 10
693.5513402126053
 20
755.9045719244184
 30
0.0
 10
693.5685218050273
 20
755.9791452596666
 30
0.0
 10
693.5885624725067
 20
756.0681359233996
 30
0.0
 10
693.5925054534094
 20
756.0857535943567
 30
0.0
 10
693.6001809610847
 20
756.1203098374405
 30
0.0
 10
693.6113917998462
 20
756.1711828867473
 30
0.0
 10
693.6216698563122
 20
756.2192121991247
 30
0.0
 10
693.6409070079937
 20
756.3115314301909
 30
0.0
 10
693.6519767534623
 20
756.3681103656165
 30
0.0
 10
693.665592200782
 20
756.4453978317975
 30
0.0
 10
693.6696316677819
 20
756.4698922575626
 30
0.0
 10
693.6748885201408
 20
756.5046708273942
 30
0.0
 10
693.6765096541751
 20
756.515957398557
 30
0.0
 10
693.6794530677814
 20
756.5376972947502
 30
0.0
 10
693.6807778252631
 20
756.5481645788514
 30
0.0
 10
693.6866687609264
 20
756.598514944003
 30
0.0
 10
693.6890398607927
 20
756.6324685475803
 30
0.0
 10
693.6890898239479
 20
756.6879455057821
 30
0.0
 10
693.6867689591018
 20
756.7094701948184
 30
0.0
 10
693.6796942876699
 20
756.7320528551872
 30
0.0
 10
693.6767621603307
 20
756.7378700662351
 30
0.0
 10
693.6698261771818
 20
756.7461633010769
 30
0.0
 10
693.6658205190056
 20
756.748644748745
 30
0.0
 10
693.6522759543709
 20
756.7511847636414
 30
0.0
 10
693.6412122463427
 20
756.7463627482655
 30
0.0
 10
693.6250752346857
 20
756.7321308363366
 30
0.0
 10
693.6217322387952
 20
756.7288723470442
 30
0.0
 10
693.6148200817566
 20
756.7215219080896
 30
0.0
 10
693.6112562413236
 20
756.717434451032
 30
0.0
 10
693.6003188033998
 20
756.7040210588192
 30
0.0
 10
693.5926764973709
 20
756.6935217332477
 30
0.0
 10
693.5688229216323
 20
756.6574775572323
 30
0.0
 10
693.5516879602085
 20
756.6274086704835
 30
0.0
 10
693.524566884514
 20
756.5733205028713
 30
0.0
 10
693.5152892460554
 20
756.5537880448305
 30
0.0
 10
693.5010647119914
 20
756.522192442014
 30
0.0
 10
693.4962636643419
 20
756.511257768852
 30
0.0
 10
693.486628902472
 20
756.4887585003287
 30
0.0
 10
693.4817908922939
 20
756.4771853263514
 30
0.0
 10
693.457521050436
 20
756.4177235773002
 30
0.0
 10
693.4378531682786
 20
756.3650712197423
 30
0.0
 10
693.3985488612653
 20
756.2497627382718
 30
0.0
 10
693.3789106304798
 20
756.1871073507981
 30
0.0
 10
693.3546820114409
 20
756.1022600749221
 30
0.0
 10
693.3498482509175
 20
756.084946664925
 30
0.0
 10
693.3402914062781
 20
756.0499186549275
 30
0.0
 10
693.3260959810553
 20
755.9966852205412
 30
0.0
 10
693.3123434627586
 20
755.9414006786429
 30
0.0
 10
693.2854880469247
 20
755.8281214244987
 30
0.0
 10
693.2684507391663
 20
755.7490009411814
 30
0.0
 10
693.2444197702341
 20
755.624788395718
 30
0.0
 10
693.2366635272953
 20
755.5824591551834
 30
0.0
 10
693.2254386428274
 20
755.5175312762026
 30
0.0
 10
693.2217590912162
 20
755.4956097890167
 30
0.0
 10
693.2145932614892
 20
755.4516034610647
 30
0.0
 10
693.2111021557577
 20
755.4294930226963
 30
0.0
 10
693.1941035332364
 20
755.3184103518765
 30
0.0
 10
693.1819661516624
 20
755.227853520234
 30
0.0
 10
693.1605700192921
 20
755.0433965406186
 30
0.0
 10
693.1513114879361
 20
754.9494967825736
 30
0.0
 10
693.1415169152718
 20
754.8299465371352
 30
0.0
 10
693.1396446473282
 20
754.8058917766238
 30
0.0
 10
693.1361043215002
 20
754.7579395880546
 30
0.0
 10
693.1310896759038
 20
754.6861294320203
 30
0.0
 10
693.1269298873041
 20
754.6146695354832
 30
0.0
 10
693.1196689443101
 20
754.4722126938153
 30
0.0
 10
693.1162391356723
 20
754.3778563709138
 30
0.0
 10
693.112909854253
 20
754.2372708838002
 30
0.0
 10
693.1121029070713
 20
754.1905678004
 30
0.0
 10
693.1110457228541
 20
754.0974911291788
 30
0.0
 10
693.1107988319285
 20
754.0513920634003
 30
0.0
 10
693.1107988319285
 20
754.0058293254968
 30
0.0
  0
SPLINE
  5
15B
330
1F
100
AcDbEntity
  8
1
  6
Continuous
 62
    30
370
    18
100
AcDbSpline
210
0.0
220
0.0
230
1.0
 70
     8
 71
     3
 72
   115
 73
   111
 74
     0
 42
0.000000001
 43
0.0000000001
 40
0.0
 40
0.0
 40
0.0
 40
0.0
 40
0.0312499999999886
 40
0.0312499999999886
 40
0.0624999999999772
 40
0.0624999999999772
 40
0.0703124999999721
 40
0.0703124999999721
 40
0.0781249999999669
 40
0.0937499999999565
 40
0.0937499999999565
 40
0.1249999999999353
 40
0.1249999999999353
 40
0.1406249999999215
 40
0.1406249999999215
 40
0.1484374999999148
 40
0.1484374999999148
 40
0.1562499999999081
 40
0.1562499999999081
 40
0.1874999999998817
 40
0.1874999999998817
 40
0.2187499999998554
 40
0.2187499999998554
 40
0.2265624999998508
 40
0.2265624999998508
 40
0.2343749999998463
 40
0.2343749999998463
 40
0.2499999999998458
 40
0.2499999999998458
 40
0.2812499999998451
 40
0.2812499999998451
 40
0.2968749999998406
 40
0.2968749999998406
 40
0.3124999999998361
 40
0.3124999999998361
 40
0.3437499999998346
 40
0.3437499999998346
 40
0.3749999999998332
 40
0.3749999999998332
 40
0.3828124999998345
 40
0.3828124999998345
 40
0.3906249999998356
 40
0.4062499999998454
 40
0.4062499999998454
 40
0.4374999999998594
 40
0.4374999999998594
 40
0.4453124999998606
 40
0.4453124999998606
 40
0.4531249999998617
 40
0.4531249999998617
 40
0.4687499999998601
 40
0.4687499999998601
 40
0.4999999999998569
 40
0.4999999999998569
 40
0.5156249999998569
 40
0.5156249999998569
 40
0.5234374999998586
 40
0.5234374999998586
 40
0.5312499999998602
 40
0.5312499999998602
 40
0.562499999999866
 40
0.562499999999866
 40
0.5703124999998679
 40
0.5703124999998679
 40
0.5781249999998698
 40
0.5781249999998698
 40
0.5937499999998738
 40
0.5937499999998738
 40
0.6249999999998799
 40
0.6249999999998799
 40
0.6406249999998835
 40
0.6406249999998835
 40
0.6484374999998853
 40
0.6484374999998853
 40
0.656249999999887
 40
0.656249999999887
 40
0.6874999999998981
 40
0.6874999999998981
 40
0.7187499999999093
 40
0.7187499999999093
 40
0.7343749999999147
 40
0.7343749999999147
 40
0.7499999999999203
 40
0.7499999999999203
 40
0.781249999999926
 40
0.781249999999926
 40
0.7890624999999273
 40
0.7890624999999273
 40
0.7968749999999285
 40
0.7968749999999285
 40
0.8124999999999393
 40
0.8124999999999393
 40
0.8437499999999684
 40
0.8437499999999684
 40
0.8593749999999791
 40
0.8593749999999791
 40
0.8671874999999808
 40
0.8671874999999808
 40
0.8749999999999825
 40
0.8749999999999825
 40
0.9062499999999881
 40
0.9062499999999881
 40
0.9374999999999937
 40
0.9374999999999937
 40
0.9453124999999974
 40
0.9453124999999974
 40
0.9531250000000011
 40
0.9687500000000008
 40
0.9687500000000008
 40
1.0
 40
1.0
 40
1.0
 40
1.0
 10
694.1107988319284
 20
756.4710974061342
 30
0.0
 10
694.0752508442134
 20
756.4240435827192
 30
0.0
 10
694.039139868092
 20
756.371957185109
 30
0.0
 10
693.9663382597353
 20
756.2578847764553
 30
0.0
 10
693.9296456609885
 20
756.1958988255584
 30
0.0
 10
693.8836724378924
 20
756.1119495826487
 30
0.0
 10
693.8744902606838
 20
756.0948668805373
 30
0.0
 10
693.8562410151327
 20
756.0602765052506
 30
0.0
 10
693.8290016199454
 20
756.0076837649523
 30
0.0
 10
693.8021846953378
 20
755.9529861036517
 30
0.0
 10
693.7491601209837
 20
755.8407922346119
 30
0.0
 10
693.7146236487654
 20
755.7622775386383
 30
0.0
 10
693.6642003826202
 20
755.6387325177553
 30
0.0
 10
693.6476226134349
 20
755.5965856016368
 30
0.0
 10
693.6231194090591
 20
755.5318626227041
 30
0.0
 10
693.6149995405308
 20
755.5100026122353
 30
0.0
 10
693.598944174017
 20
755.4659352525973
 30
0.0
 10
693.5910265585397
 20
755.4437784753991
 30
0.0
 10
693.5519827510735
 20
755.3323847383493
 30
0.0
 10
693.5224878235679
 20
755.2413250499598
 30
0.0
 10
693.4668500181372
 20
755.0553483631381
 30
0.0
 10
693.4407075565839
 20
754.9604318464284
 30
0.0
 10
693.4100647499745
 20
754.8392850317048
 30
0.0
 10
693.4040380140073
 20
754.8149301433823
 30
0.0
 10
693.3921869161298
 20
754.765965058199
 30
0.0
 10
693.3863666848293
 20
754.7413690110741
 30
0.0
 10
693.3693526726618
 20
754.6678387127317
 30
0.0
 10
693.3585536269754
 20
754.6189511149046
 30
0.0
 10
693.3276770737081
 20
754.4726987615959
 30
0.0
 10
693.3091171133693
 20
754.375741726239
 30
0.0
 10
693.2839417327758
 20
754.2312201992493
 30
0.0
 10
693.2759948677656
 20
754.1831993453774
 30
0.0
 10
693.2609374497738
 20
754.0874887546917
 30
0.0
 10
693.2538054710111
 20
754.0396321408031
 30
0.0
 10
693.2338961477208
 20
753.8988606881478
 30
0.0
 10
693.2224967926962
 20
753.8081578201591
 30
0.0
 10
693.2026837019932
 20
753.6330085622135
 30
0.0
 10
693.1942719424511
 20
753.5485610008458
 30
0.0
 10
693.1852701715959
 20
753.4471290617957
 30
0.0
 10
693.183546468947
 20
753.4270535381085
 30
0.0
 10
693.1802699256722
 20
753.38765575542
 30
0.0
 10
693.1755999186305
 20
753.3295594953902
 30
0.0
 10
693.1716087620132
 20
753.2744235679567
 30
0.0
 10
693.1644106783814
 20
753.1680487748326
 30
0.0
 10
693.160649938002
 20
753.1023080556567
 30
0.0
 10
693.15697074471
 20
753.0267402610224
 30
0.0
 10
693.1562866063176
 20
753.0119587172917
 30
0.0
 10
693.155017273795
 20
752.9830698130949
 30
0.0
 10
693.1544314529382
 20
752.9689435226032
 30
0.0
 10
693.1528289640065
 20
752.9279141237164
 30
0.0
 10
693.1519618130018
 20
752.9022582572505
 30
0.0
 10
693.1499010904159
 20
752.8302588770613
 30
0.0
 10
693.1492393245422
 20
752.7888581331943
 30
0.0
 10
693.1492353370636
 20
752.7366451341983
 30
0.0
 10
693.1494010361539
 20
752.7208951889794
 30
0.0
 10
693.1499110716716
 20
752.699810632226
 30
0.0
 10
693.1501253404034
 20
752.6931954269073
 30
0.0
 10
693.1506420705308
 20
752.6808921666667
 30
0.0
 10
693.1509442806813
 20
752.6752030060829
 30
0.0
 10
693.152679405386
 20
752.6490440628725
 30
0.0
 10
693.1547732972009
 20
752.6353986518054
 30
0.0
 10
693.1584625517637
 20
752.6274063259732
 30
0.0
 10
693.1592547088376
 20
752.6262633384611
 30
0.0
 10
693.1609553276396
 20
752.6248965034467
 30
0.0
 10
693.1618658417178
 20
752.6246739279477
 30
0.0
 10
693.1647655373093
 20
752.6253934398421
 30
0.0
 10
693.166925245957
 20
752.6277112203327
 30
0.0
 10
693.1741618850313
 20
752.640025559162
 30
0.0
 10
693.1799888635308
 20
752.6553566748632
 30
0.0
 10
693.1906713338768
 20
752.6889338432427
 30
0.0
 10
693.1945576031558
 20
752.7018963380742
 30
0.0
 10
693.2009484650217
 20
752.724044139844
 30
0.0
 10
693.2031748804392
 20
752.731886458719
 30
0.0
 10
693.207818817234
 20
752.7484497386769
 30
0.0
 10
693.2102266627031
 20
752.7571358582767
 30
0.0
 10
693.2227150130562
 20
752.8025502931619
 30
0.0
 10
693.2341373881467
 20
752.8452002467129
 30
0.0
 10
693.2604346407074
 20
752.9426540615256
 30
0.0
 10
693.2753072979219
 20
752.9974587253032
 30
0.0
 10
693.3007740293257
 20
753.0889659506187
 30
0.0
 10
693.3097060924648
 20
753.1207171344324
 30
0.0
 10
693.328439819173
 20
753.1864057057312
 30
0.0
 10
693.3382508793786
 20
753.2203771511876
 30
0.0
 10
693.3690840823655
 20
753.3255747019946
 30
0.0
 10
693.3915032916177
 20
753.4000685287775
 30
0.0
 10
693.4221184426907
 20
753.4985563657149
 30
0.0
 10
693.4283712607344
 20
753.5185236960574
 30
0.0
 10
693.441144037032
 20
753.5590008228933
 30
0.0
 10
693.4476593780747
 20
753.5794952490781
 30
0.0
 10
693.4674606238239
 20
753.6413135112946
 30
0.0
 10
693.4810494588402
 20
753.6831234732322
 30
0.0
 10
693.5229846037643
 20
753.8102698634823
 30
0.0
 10
693.5524989032025
 20
753.89731367392
 30
0.0
 10
693.5991356572813
 20
754.0311718090065
 30
0.0
 10
693.6150756125692
 20
754.0763422614245
 30
0.0
 10
693.6395823246188
 20
754.1449295814333
 30
0.0
 10
693.6478653575887
 20
754.1679710837188
 30
0.0
 10
693.6645338301873
 20
754.2140652460585
 30
0.0
 10
693.672922928514
 20
754.2371287204633
 30
0.0
 10
693.7151342900734
 20
754.3525276465525
 30
0.0
 10
693.7497554112063
 20
754.4451045739631
 30
0.0
 10
693.8204681022102
 20
754.630815590248
 30
0.0
 10
693.8565606206148
 20
754.7239493424656
 30
0.0
 10
693.9024214396029
 20
754.8407932279797
 30
0.0
 10
693.911640865205
 20
754.8642091132897
 30
0.0
 10
693.930026573082
 20
754.910778063138
 30
0.0
 10
693.957565306785
 20
754.980339505838
 30
0.0
 10
693.9849581276899
 20
755.049048687772
 30
0.0
 10
694.0394688392297
 20
755.1853793709604
 30
0.0
 10
694.0754479189113
 20
755.2748206136466
 30
0.0
 10
694.1107988319208
 20
755.362889722513
 30
0.0
  0
SPLINE
  5
15C
330
1F
100
AcDbEntity
  8
1
  6
Continuous
 62
    30
370
    18
100
AcDbSpline
210
0.0
220
0.0
230
1.0
 70
     8
 71
     3
 72
    42
 73
    38
 74
     0
 42
0.000000001
 43
0.0000000001
 40
0.0
 40
0.0
 40
0.0
 40
0.0
 40
0.1081753506234387
 40
0.1081753506234387
 40
0.1622630259351579
 40
0.1622630259351579
 40
0.1893068635910177
 40
0.1893068635910177
 40
0.2163507012468775
 40
0.2163507012468775
 40
0.3245260518702494
 40
0.3245260518702494
 40
0.3786137271819351
 40
0.3786137271819351
 40
0.4056575648377889
 40
0.4056575648377889
 40
0.4327014024936427
 40
0.4327014024936427
 40
0.5408767531170762
 40
0.5408767531170762
 40
0.5679205907729211
 40
0.5679205907729211
 40
0.5949644284287662
 40
0.5949644284287662
 40
0.6490521037404539
 40
0.6490521037404539
 40
0.7572274543638291
 40
0.7572274543638291
 40
0.7842712920196766
 40
0.7842712920196766
 40
0.8113151296755242
 40
0.8113151296755242
 40
0.865402804987224
 40
0.865402804987224
 40
0.9735781556106267
 40
0.9735781556106267
 40
1.0
 40
1.0
 40
1.0
 40
1.0
 10
693.1107988319285
 20
754.3809827151183
 30
0.0
 10
693.1107988319285
 20
754.5088893857509
 30
0.0
 10
693.1134042331482
 20
754.6364921571076
 30
0.0
 10
693.1206447834295
 20
754.8274740912677
 30
0.0
 10
693.1236146552473
 20
754.8910639804253
 30
0.0
 10
693.1288363198106
 20
754.9863436240022
 30
0.0
 10
693.1307046915223
 20
755.0180859518106
 30
0.0
 10
693.1346856995526
 20
755.0815353879391
 30
0.0
 10
693.1367921280456
 20
755.113135754983
 30
0.0
 10
693.1477830502088
 20
755.2694851310904
 30
0.0
 10
693.1581025343013
 20
755.3903338621843
 30
0.0
 10
693.1749013008932
 20
755.5654824079247
 30
0.0
 10
693.1807217963941
 20
755.6228377730183
 30
0.0
 10
693.1896636842581
 20
755.7072956531523
 30
0.0
 10
693.1926792618896
 20
755.7351799429622
 30
0.0
 10
693.1986962758386
 20
755.7898467768769
 30
0.0
 10
693.2017054984722
 20
755.8167037514943
 30
0.0
 10
693.2167014477574
 20
755.948647950875
 30
0.0
 10
693.2285364273978
 20
756.0467751284842
 30
0.0
 10
693.2423012999052
 20
756.1601765914018
 30
0.0
 10
693.2450028325699
 20
756.1823901346335
 30
0.0
 10
693.2502818527842
 20
756.2258684824142
 30
0.0
 10
693.2528654000563
 20
756.2471838388431
 30
0.0
 10
693.2603296805912
 20
756.3091107503334
 30
0.0
 10
693.26493782047
 20
756.3478216082488
 30
0.0
 10
693.2774942098597
 20
756.4564448461521
 30
0.0
 10
693.2841749589265
 20
756.5189131838662
 30
0.0
 10
693.2898892109633
 20
756.5842642212332
 30
0.0
 10
693.2909015600172
 20
756.5967110665515
 30
0.0
 10
693.2926430142677
 20
756.6202087152674
 30
0.0
 10
693.293368460369
 20
756.6312063456982
 30
0.0
 10
693.2951096714286
 20
756.6619895719799
 30
0.0
 10
693.2956902232819
 20
756.6795702437514
 30
0.0
 10
693.2956999248178
 20
756.7236572897351
 30
0.0
 10
693.2933954819342
 20
756.7415855096233
 30
0.0
 10
693.2877042281102
 20
756.7490571689316
 30
0.0
 10
693.2864579856586
 20
756.7497965802497
 30
0.0
 10
693.285093051141
 20
756.7498196094426
 30
0.0
  0
SPLINE
  5
15D
330
1F
100
AcDbEntity
  8
1
  6
Continuous
 62
    30
370
    18
100
AcDbSpline
210
0.0
220
0.0
230
1.0
 70
     8
 71
     3
 72
    69
 73
    65
 74
     0
 42
0.000000001
 43
0.0000000001
 40
0.0
 40
0.0
 40
0.0
 40
0.0
 40
0.013127991789677
 40
0.013127991789677
 40
0.0460237253966956
 40
0.0460237253966956
 40
0.0624715922002051
 40
0.0624715922002051
 40
0.0789194590037145
 40
0.0789194590037145
 40
0.1447109262177114
 40
0.1447109262177114
 40
0.1776066598247097
 40
0.1776066598247097
 40
0.1940545266282155
 40
0.1940545266282155
 40
0.2105023934317213
 40
0.2105023934317213
 40
0.2762938606457556
 40
0.2762938606457556
 40
0.292741727449256
 40
0.292741727449256
 40
0.3091895942527565
 40
0.3091895942527565
 40
0.342085327859756
 40
0.342085327859756
 40
0.4078767950737548
 40
0.4078767950737548
 40
0.4243246618772569
 40
0.4243246618772569
 40
0.4407725286807589
 40
0.4407725286807589
 40
0.4736682622877658
 40
0.4736682622877658
 40
0.5394597295017812
 40
0.5394597295017812
 40
0.5559075963052835
 40
0.5559075963052835
 40
0.5723554631087857
 40
0.5723554631087857
 40
0.6052511967157919
 40
0.6381469303227981
 40
0.6381469303227981
 40
0.6545947971263029
 40
0.6545947971263029
 40
0.6710426639298075
 40
0.6710426639298075
 40
0.7368341311438268
 40
0.7368341311438268
 40
0.7697298647508373
 40
0.7697298647508373
 40
0.7861777315543471
 40
0.7861777315543471
 40
0.802625598357857
 40
0.802625598357857
 40
0.8684170655718949
 40
0.8684170655718949
 40
0.8848649323754076
 40
0.8848649323754076
 40
0.9013127991789204
 40
0.9013127991789204
 40
0.934208532785947
 40
0.934208532785947
 40
1.0
 40
1.0
 40
1.0
 40
1.0
 10
393.827343544402
 20
325.391688924138
 30
0.0
 10
393.8273506330345
 20
325.390905702567
 30
0.0
 10
393.8278277679365
 20
325.3900309755306
 30
0.0
 10
393.8311333005962
 20
325.3866542752585
 30
0.0
 10
393.8364402857717
 20
325.3836844034408
 30
0.0
 10
393.8488918281454
 20
325.3784627388775
 30
0.0
 10
393.8537920638202
 20
325.3765943671658
 30
0.0
 10
393.8651198151672
 20
325.3726133591355
 30
0.0
 10
393.8715316800215
 20
325.3705069306425
 30
0.0
 10
393.9070649701283
 20
325.3595160084793
 30
0.0
 10
393.9466918089065
 20
325.3491965243868
 30
0.0
 10
394.0225580812008
 20
325.3323977577949
 30
0.0
 10
394.0506026551157
 20
325.3265772622941
 30
0.0
 10
394.0969246820691
 20
325.31763537443
 30
0.0
 10
394.1130787523073
 20
325.3146197967985
 30
0.0
 10
394.1464735737688
 20
325.3086027828494
 30
0.0
 10
394.1637537414168
 20
325.3055935602159
 30
0.0
 10
394.253025238482
 20
325.2905976109308
 30
0.0
 10
394.33355290769
 20
325.2787626312903
 30
0.0
 10
394.4456849577334
 20
325.2649977587829
 30
0.0
 10
394.4686897299705
 20
325.2622962261182
 30
0.0
 10
394.5158776708693
 20
325.2570172059039
 30
0.0
 10
394.5401243566922
 20
325.2544336586319
 30
0.0
 10
394.6139869914898
 20
325.2469693780968
 30
0.0
 10
394.6648223518704
 20
325.2423612382182
 30
0.0
 10
394.821990853918
 20
325.2298048488285
 30
0.0
 10
394.9329465697566
 20
325.2231240997615
 30
0.0
 10
395.0795798907674
 20
325.2174098477248
 30
0.0
 10
395.1093548186583
 20
325.2163974986709
 30
0.0
 10
395.1695109145653
 20
325.2146560444204
 30
0.0
 10
395.1997488697954
 20
325.2139305983191
 30
0.0
 10
395.2909330753369
 20
325.2121893872595
 30
0.0
 10
395.3523486519897
 20
325.2116088354062
 30
0.0
 10
395.5384375232072
 20
325.2115991338703
 30
0.0
 10
395.6649365365667
 20
325.2139035767539
 30
0.0
 10
395.826233143939
 20
325.2196211306917
 30
0.0
 10
395.858460604817
 20
325.2208998198046
 30
0.0
 10
395.9226494933305
 20
325.2237053801713
 30
0.0
 10
395.9546441574454
 20
325.2252334240868
 30
0.0
 10
396.0503343474562
 20
325.2301714908302
 30
0.0
 10
396.1771389630592
 20
325.2376992627326
 30
0.0
 10
396.3024085914182
 20
325.2468848863194
 30
0.0
 10
396.3957821864617
 20
325.2543078062115
 30
0.0
 10
396.4268101343135
 20
325.2568710309719
 30
0.0
 10
396.4886705181658
 20
325.2621600192278
 30
0.0
 10
396.5194123509386
 20
325.2648783922056
 30
0.0
 10
396.6711255106186
 20
325.2786917946983
 30
0.0
 10
396.7871913799053
 20
325.2905378067292
 30
0.0
 10
396.9535896768662
 20
325.3084926044475
 30
0.0
 10
397.0077638301133
 20
325.3145089179106
 30
0.0
 10
397.0870406725689
 20
325.3234502232139
 30
0.0
 10
397.1131487126358
 20
325.3264183709657
 30
0.0
 10
397.164159842943
 20
325.332243255367
 30
0.0
 10
397.189132506452
 20
325.3351077974694
 30
0.0
 10
397.311375859244
 20
325.3491422625773
 30
0.0
 10
397.4008558056066
 20
325.3594490419552
 30
0.0
 10
397.502315063451
 20
325.3704049210967
 30
0.0
 10
397.5220830562092
 20
325.3724995418166
 30
0.0
 10
397.5605535888815
 20
325.3764750469939
 30
0.0
 10
397.5793014641202
 20
325.3783602382637
 30
0.0
 10
397.6335056249017
 20
325.3836243217812
 30
0.0
 10
397.6669322055956
 20
325.3866137449212
 30
0.0
 10
397.7592670396734
 20
325.3938940697545
 30
0.0
 10
397.8103007647393
 20
325.3965002267597
 30
0.0
 10
397.8504524455874
 20
325.3965002267597
 30
0.0
  0
SPLINE
  5
15E
330
1F
100
AcDbEntity
  8
1
  6
Continuous
 62
    30
370
    18
100
AcDbSpline
210
0.0
220
0.0
230
1.0
 70
     8
 71
     3
 72
   115
 73
   111
 74
     0
 42
0.000000001
 43
0.0000000001
 40
0.0
 40
0.0
 40
0.0
 40
0.0
 40
0.0312500000000491
 40
0.0312500000000491
 40
0.0625000000000981
 40
0.0625000000000981
 40
0.0703125000001106
 40
0.0703125000001106
 40
0.078125000000123
 40
0.0937500000001414
 40
0.0937500000001414
 40
0.1250000000001782
 40
0.1250000000001782
 40
0.1406250000001966
 40
0.1406250000001966
 40
0.148437500000202
 40
0.148437500000202
 40
0.1562500000002074
 40
0.1562500000002074
 40
0.1875000000002128
 40
0.1875000000002128
 40
0.2187500000002182
 40
0.2187500000002182
 40
0.2265625000002196
 40
0.2265625000002196
 40
0.234375000000221
 40
0.234375000000221
 40
0.2500000000002237
 40
0.2500000000002237
 40
0.2812500000002291
 40
0.2812500000002291
 40
0.2968750000002275
 40
0.2968750000002275
 40
0.3125000000002258
 40
0.3125000000002258
 40
0.3437500000002222
 40
0.3437500000002222
 40
0.3750000000002186
 40
0.3750000000002186
 40
0.3828125000002195
 40
0.3828125000002195
 40
0.3906250000002205
 40
0.4062500000002218
 40
0.4062500000002218
 40
0.4375000000002182
 40
0.4375000000002182
 40
0.4453125000002179
 40
0.4453125000002179
 40
0.4531250000002177
 40
0.4531250000002177
 40
0.4687500000002172
 40
0.4687500000002172
 40
0.5000000000002172
 40
0.5000000000002172
 40
0.5156250000002182
 40
0.5156250000002182
 40
0.5234375000002186
 40
0.5234375000002186
 40
0.5312500000002192
 40
0.5312500000002192
 40
0.5625000000002208
 40
0.5625000000002208
 40
0.5703125000002212
 40
0.5703125000002212
 40
0.5781250000002216
 40
0.5781250000002216
 40
0.5937500000002235
 40
0.5937500000002235
 40
0.6250000000002259
 40
0.6250000000002259
 40
0.6406250000002276
 40
0.6406250000002276
 40
0.6484375000002285
 40
0.6484375000002285
 40
0.6562500000002293
 40
0.6562500000002293
 40
0.6875000000002272
 40
0.6875000000002272
 40
0.718750000000225
 40
0.718750000000225
 40
0.7343750000002214
 40
0.7343750000002214
 40
0.7500000000002177
 40
0.7500000000002177
 40
0.7812500000002045
 40
0.7812500000002045
 40
0.7890625000001994
 40
0.7890625000001994
 40
0.7968750000001944
 40
0.7968750000001944
 40
0.8125000000001831
 40
0.8125000000001831
 40
0.8437500000001605
 40
0.8437500000001605
 40
0.8593750000001492
 40
0.8593750000001492
 40
0.8671875000001437
 40
0.8671875000001437
 40
0.8750000000001381
 40
0.8750000000001381
 40
0.9062500000001015
 40
0.9062500000001015
 40
0.9375000000000648
 40
0.9375000000000648
 40
0.9453125000000538
 40
0.9453125000000538
 40
0.9531250000000427
 40
0.9687500000000286
 40
0.9687500000000286
 40
1.0
 40
1.0
 40
1.0
 40
1.0
 10
443.2544556238538
 20
288.3965002267596
 30
0.0
 10
443.1733914374408
 20
288.3609522390446
 30
0.0
 10
443.0963159972032
 20
288.3248412629232
 30
0.0
 10
442.9497561179595
 20
288.2520396545665
 30
0.0
 10
442.8802725857099
 20
288.2153470558198
 30
0.0
 10
442.7982457360488
 20
288.1693738327237
 30
0.0
 10
442.7821160654721
 20
288.1601916555151
 30
0.0
 10
442.7505514080628
 20
288.141942409964
 30
0.0
 10
442.7041787796821
 20
288.1147030147768
 30
0.0
 10
442.6606914154555
 20
288.0878860901692
 30
0.0
 10
442.5775207459207
 20
288.0348615158151
 30
0.0
 10
442.5271261336487
 20
288.0003250435968
 30
0.0
 10
442.4592976969343
 20
287.9499017774517
 30
0.0
 10
442.4379869390744
 20
287.9333240082663
 30
0.0
 10
442.4080388908903
 20
287.9088208038905
 30
0.0
 10
442.3983783270779
 20
287.9007009353623
 30
0.0
 10
442.3798159737923
 20
287.8846455688485
 30
0.0
 10
442.3709339080822
 20
287.8767279533712
 30
0.0
 10
442.3285022225842
 20
287.837684145905
 30
0.0
 10
442.3008603810717
 20
287.8081892183994
 30
0.0
 10
442.2582111988251
 20
287.7525514129687
 30
0.0
 10
442.2432011764609
 20
287.7264089514154
 30
0.0
 10
442.2328139345835
 20
287.695766144806
 30
0.0
 10
442.2311572345877
 20
287.6897394088388
 30
0.0
 10
442.2287058562135
 20
287.6778883109614
 30
0.0
 10
442.2279142853661
 20
287.6720680796608
 30
0.0
 10
442.2268610899007
 20
287.6550540674933
 30
0.0
 10
442.2279069112494
 20
287.644255021807
 30
0.0
 10
442.2362253283945
 20
287.6133784685395
 30
0.0
 10
442.2486545088911
 20
287.5948185082009
 30
0.0
 10
442.2778143425751
 20
287.5696431276073
 30
0.0
 10
442.2892929484069
 20
287.561696262597
 30
0.0
 10
442.3158771819811
 20
287.5466388446052
 30
0.0
 10
442.3310535830507
 20
287.5395068658426
 30
0.0
 10
442.3814041411006
 20
287.5195975425523
 30
0.0
 10
442.4214811413146
 20
287.5081981875277
 30
0.0
 10
442.5144187909196
 20
287.4883850968246
 30
0.0
 10
442.5672776204681
 20
287.4799733372824
 30
0.0
 10
442.6416814110523
 20
287.4709715664272
 30
0.0
 10
442.6569813952215
 20
287.4692478637783
 30
0.0
 10
442.6881620219929
 20
287.4659713205035
 30
0.0
 10
442.7358977290561
 20
287.4613013134618
 30
0.0
 10
442.7864854772781
 20
287.4573101568445
 30
0.0
 10
442.8914087340736
 20
287.4501120732127
 30
0.0
 10
442.9663348691756
 20
287.4463513328333
 30
0.0
 10
443.0663284930516
 20
287.4426721395413
 30
0.0
 10
443.0866455817272
 20
287.4419880011489
 30
0.0
 10
443.1279258502473
 20
287.4407186686263
 30
0.0
 10
443.1489211323315
 20
287.4401328477694
 30
0.0
 10
443.2123848056036
 20
287.4385303588377
 30
0.0
 10
443.2554642407432
 20
287.4376632078329
 30
0.0
 10
443.3869573280558
 20
287.4356024852471
 30
0.0
 10
443.4776141668203
 20
287.4349407193735
 30
0.0
 10
443.6180864135404
 20
287.4349367318947
 30
0.0
 10
443.6656612288901
 20
287.4351024309851
 30
0.0
 10
443.738176261584
 20
287.4356124665027
 30
0.0
 10
443.7625855660677
 20
287.4358267352346
 30
0.0
 10
443.8115320023987
 20
287.436343465362
 30
0.0
 10
443.8360644272105
 20
287.4366456755124
 30
0.0
 10
443.9590191569792
 20
287.4383808002171
 30
0.0
 10
444.0583148205342
 20
287.440474692032
 30
0.0
 10
444.1835900431925
 20
287.4441639465948
 30
0.0
 10
444.2087031474024
 20
287.4449561036686
 30
0.0
 10
444.2590463664193
 20
287.4466567224707
 30
0.0
 10
444.2843273334065
 20
287.4475672365489
 30
0.0
 10
444.3598481107497
 20
287.4504669321404
 30
0.0
 10
444.4098733216433
 20
287.4526266407881
 30
0.0
 10
444.5590037581826
 20
287.4598632798622
 30
0.0
 10
444.6571686857888
 20
287.4656902583616
 30
0.0
 10
444.8025222887744
 20
287.4763727287077
 30
0.0
 10
444.8506566260752
 20
287.4802589979867
 30
0.0
 10
444.9223700053309
 20
287.4866498598525
 30
0.0
 10
444.9462175044147
 20
287.4888762752699
 30
0.0
 10
444.9936403880151
 20
287.4935202120648
 30
0.0
 10
445.0171190574293
 20
287.4959280575339
 30
0.0
 10
445.1333665900161
 20
287.508416407887
 30
0.0
 10
445.2227150756997
 20
287.5198387829774
 30
0.0
 10
445.3942882320506
 20
287.546136035538
 30
0.0
 10
445.4765127956492
 20
287.5610086927524
 30
0.0
 10
445.5943219079394
 20
287.586475424156
 30
0.0
 10
445.6322653719653
 20
287.5954074872952
 30
0.0
 10
445.7053287594508
 20
287.6141412140033
 30
0.0
 10
445.7404922668115
 20
287.6239522742088
 30
0.0
 10
445.8419632002261
 20
287.6547854771956
 30
0.0
 10
445.9042688256812
 20
287.6772046864477
 30
0.0
 10
445.975478484406
 20
287.7078198375206
 30
0.0
 10
445.9893853807844
 20
287.7140726555643
 30
0.0
 10
446.016523463638
 20
287.7268454318619
 30
0.0
 10
446.0297419707061
 20
287.7333607729045
 30
0.0
 10
446.0680891076134
 20
287.7531620186537
 30
0.0
 10
446.0920144636635
 20
287.7667508536699
 30
0.0
 10
446.1590415424255
 20
287.8086859985939
 30
0.0
 10
446.1974152748551
 20
287.8382002980321
 30
0.0
 10
446.2457725165143
 20
287.8848370521108
 30
0.0
 10
446.2603523337839
 20
287.9007770073986
 30
0.0
 10
446.2798978764563
 20
287.9252837194482
 30
0.0
 10
446.2860346919015
 20
287.933566752418
 30
0.0
 10
446.2974621668818
 20
287.9502352250166
 30
0.0
 10
446.3027576582257
 20
287.9586243233434
 30
0.0
 10
446.3271844787229
 20
288.0008356849025
 30
0.0
 10
446.3401944510186
 20
288.0354568060354
 30
0.0
 10
446.3536784906469
 20
288.1061694970392
 30
0.0
 10
446.3541523068067
 20
288.1422620154439
 30
0.0
 10
446.3467669848634
 20
288.1881228344318
 30
0.0
 10
446.3448854736803
 20
288.1973422600339
 30
0.0
 10
446.3403443429715
 20
288.215727967911
 30
0.0
 10
446.3323609418434
 20
288.2432667016139
 30
0.0
 10
446.3209123911299
 20
288.2706595225188
 30
0.0
 10
446.2934581186385
 20
288.3251702340586
 30
0.0
 10
446.2691035123852
 20
288.3611493137402
 30
0.0
 10
446.2385722969018
 20
288.3965002267497
 30
0.0
  0
SPLINE
  5
15F
330
1F
100
AcDbEntity
  8
1
  6
Continuous
 62
    30
370
    18
100
AcDbSpline
210
0.0
220
0.0
230
1.0
 70
     8
 71
     3
 72
   111
 73
   107
 74
     0
 42
0.000000001
 43
0.0000000001
 40
0.0
 40
0.0
 40
0.0
 40
0.0
 40
0.0312500000000243
 40
0.0312500000000243
 40
0.0625000000000485
 40
0.0625000000000485
 40
0.0703125000000526
 40
0.0703125000000526
 40
0.0781250000000567
 40
0.0781250000000567
 40
0.0937500000000642
 40
0.0937500000000642
 40
0.1250000000000872
 40
0.1250000000000872
 40
0.1406250000001028
 40
0.1406250000001028
 40
0.1562500000001183
 40
0.1562500000001183
 40
0.1875000000001409
 40
0.2187500000001636
 40
0.2187500000001636
 40
0.2265625000001712
 40
0.2265625000001712
 40
0.2343750000001789
 40
0.250000000000194
 40
0.250000000000194
 40
0.2812500000002239
 40
0.2812500000002239
 40
0.2968750000002386
 40
0.2968750000002386
 40
0.3046875000002462
 40
0.3046875000002462
 40
0.3125000000002537
 40
0.3125000000002537
 40
0.343750000000269
 40
0.343750000000269
 40
0.3750000000002843
 40
0.3750000000002843
 40
0.3828125000002832
 40
0.3828125000002832
 40
0.390625000000282
 40
0.4062500000002862
 40
0.4062500000002862
 40
0.4375000000002946
 40
0.4375000000002946
 40
0.4531250000002993
 40
0.4531250000002993
 40
0.4609375000003
 40
0.4609375000003
 40
0.4687500000003007
 40
0.4687500000003007
 40
0.5000000000003005
 40
0.5000000000003005
 40
0.5312500000003004
 40
0.5312500000003004
 40
0.5468750000003003
 40
0.5468750000003003
 40
0.5625000000003002
 40
0.5625000000003002
 40
0.5937500000002989
 40
0.5937500000002989
 40
0.6015625000002984
 40
0.6015625000002984
 40
0.6093750000002981
 40
0.6093750000002981
 40
0.6250000000002978
 40
0.6250000000002978
 40
0.6562500000003008
 40
0.6562500000003008
 40
0.671875000000304
 40
0.671875000000304
 40
0.6796875000003056
 40
0.6796875000003056
 40
0.6875000000003072
 40
0.6875000000003072
 40
0.7187500000003031
 40
0.7187500000003031
 40
0.7500000000002989
 40
0.7500000000002989
 40
0.7578125000002929
 40
0.7578125000002929
 40
0.7656250000002869
 40
0.7812500000002751
 40
0.7812500000002751
 40
0.8125000000002518
 40
0.8125000000002518
 40
0.8281250000002359
 40
0.8281250000002359
 40
0.8359375000002283
 40
0.8359375000002283
 40
0.8437500000002205
 40
0.8437500000002205
 40
0.8750000000001817
 40
0.8750000000001817
 40
0.9062500000001429
 40
0.9062500000001429
 40
0.9140625000001332
 40
0.9140625000001332
 40
0.9218750000001236
 40
0.9375000000000951
 40
0.9375000000000951
 40
0.9687500000000474
 40
0.9687500000000474
 40
0.9843750000000238
 40
0.9843750000000238
 40
1.0
 40
1.0
 40
1.0
 40
1.0
 10
389.289366153246
 20
325.3965002267597
 30
0.0
 10
389.2121621107324
 20
325.3965002267597
 30
0.0
 10
389.1399308153472
 20
325.3955142143102
 30
0.0
 10
389.0050126266323
 20
325.3911220019613
 30
0.0
 10
388.9423268979756
 20
325.3877173585907
 30
0.0
 10
388.8700338741172
 20
325.3816513017318
 30
0.0
 10
388.8558798289565
 20
325.3803474344259
 30
0.0
 10
388.8281888803982
 20
325.3775502069458
 30
0.0
 10
388.8146296902084
 20
325.3760538206419
 30
0.0
 10
388.7751779445803
 20
325.3713038835634
 30
0.0
 10
388.7504366553202
 20
325.3677840093727
 30
0.0
 10
388.6807637231507
 20
325.3561426429874
 30
0.0
 10
388.6403624660314
 20
325.3469399193825
 30
0.0
 10
388.5887129637117
 20
325.3308796568896
 30
0.0
 10
388.5729937270518
 20
325.3251501036753
 30
0.0
 10
388.5445935725264
 20
325.3129212307523
 30
0.0
 10
388.5318827564681
 20
325.3063968645118
 30
0.0
 10
388.4988652043904
 20
325.2859420696414
 30
0.0
 10
388.4680702991688
 20
325.2562212239108
 30
0.0
 10
388.4627207529807
 20
325.2220519729041
 30
0.0
 10
388.4674791905763
 20
325.1994497369369
 30
0.0
 10
388.4688416996441
 20
325.194858303277
 30
0.0
 10
388.4723689682668
 20
325.1856094041594
 30
0.0
 10
388.4788590537418
 20
325.1716342406667
 30
0.0
 10
388.4888849901712
 20
325.1573845648876
 30
0.0
 10
388.5135568397109
 20
325.128602281991
 30
0.0
 10
388.5361421124184
 20
325.1090352001187
 30
0.0
 10
388.5792689776487
 20
325.079466269474
 30
0.0
 10
388.5951917005381
 20
325.0695739017557
 30
0.0
 10
388.6214553322356
 20
325.054729796824
 30
0.0
 10
388.6306192805234
 20
325.0497751423035
 30
0.0
 10
388.6496126437246
 20
325.0399441718138
 30
0.0
 10
388.6594552434777
 20
325.0350598631526
 30
0.0
 10
388.710378166641
 20
325.0108138596445
 30
0.0
 10
388.756562659031
 20
324.9919760623961
 30
0.0
 10
388.8597411263875
 20
324.9559588460829
 30
0.0
 10
388.9167330659615
 20
324.9387772536607
 30
0.0
 10
388.9950930658802
 20
324.9187365861814
 30
0.0
 10
389.0111542402531
 20
324.9147936052786
 30
0.0
 10
389.0437711019246
 20
324.9071180976034
 30
0.0
 10
389.0934831191166
 20
324.8959072588419
 30
0.0
 10
389.1455281690752
 20
324.8856292023759
 30
0.0
 10
389.2527000654042
 20
324.8663920506943
 30
0.0
 10
389.3282421469
 20
324.8553223052257
 30
0.0
 10
389.4478506658766
 20
324.841706857906
 30
0.0
 10
389.488773054412
 20
324.8376673909062
 30
0.0
 10
389.5517910942395
 20
324.8324105385473
 30
0.0
 10
389.5731138916095
 20
324.830789404513
 30
0.0
 10
389.615985471018
 20
324.8278459909067
 30
0.0
 10
389.6375557843824
 20
324.826521233425
 30
0.0
 10
389.7460709337992
 20
324.8206302977617
 30
0.0
 10
389.8349969965818
 20
324.8182591978954
 30
0.0
 10
390.0170032837307
 20
324.8182092347401
 30
0.0
 10
390.1100830642398
 20
324.8205300995863
 30
0.0
 10
390.2529452818695
 20
324.8276047710182
 30
0.0
 10
390.3005743767571
 20
324.8305368983574
 30
0.0
 10
390.3956406906336
 20
324.8374728815064
 30
0.0
 10
390.4431132756438
 20
324.8414785396825
 30
0.0
 10
390.5853582918284
 20
324.8550231043172
 30
0.0
 10
390.679958354534
 20
324.8660868123455
 30
0.0
 10
390.79794455195
 20
324.8822238240023
 30
0.0
 10
390.8215285676344
 20
324.8855668198929
 30
0.0
 10
390.8686706248625
 20
324.8924789769314
 30
0.0
 10
390.8921894902629
 20
324.8960428173644
 30
0.0
 10
390.9621864925529
 20
324.9069802552883
 30
0.0
 10
391.0082647377037
 20
324.9146225613171
 30
0.0
 10
391.1448057217969
 20
324.9384761370558
 30
0.0
 10
391.2335826722266
 20
324.9556110984796
 30
0.0
 10
391.3634789582181
 20
324.9827321741741
 30
0.0
 10
391.4062308356033
 20
324.9920098126327
 30
0.0
 10
391.4695332712027
 20
325.0062343466967
 30
0.0
 10
391.4905307827808
 20
325.0110353943462
 30
0.0
 10
391.531982105189
 20
325.0206701562161
 30
0.0
 10
391.5524563269281
 20
325.0255081663941
 30
0.0
 10
391.6535929763443
 20
325.0497780082522
 30
0.0
 10
391.7305710392887
 20
325.0694458904094
 30
0.0
 10
391.8769288860172
 20
325.1087501974228
 30
0.0
 10
391.9463087544362
 20
325.1283884282083
 30
0.0
 10
392.0281538733974
 20
325.1526170472472
 30
0.0
 10
392.0442900027782
 20
325.1574508077705
 30
0.0
 10
392.0758306317402
 20
325.1670076524101
 30
0.0
 10
392.1221329448773
 20
325.1812030776327
 30
0.0
 10
392.1654525353068
 20
325.1949555959295
 30
0.0
 10
392.2481721456995
 20
325.2218110117634
 30
0.0
 10
392.2981117093898
 20
325.2388483195219
 30
0.0
 10
392.3650873264027
 20
325.2628792884539
 30
0.0
 10
392.3860855005882
 20
325.2706355313928
 30
0.0
 10
392.4155308345404
 20
325.2818604158608
 30
0.0
 10
392.4250188321511
 20
325.2855399674718
 30
0.0
 10
392.4431658098668
 20
325.2927057971989
 30
0.0
 10
392.4518380478908
 20
325.2961969029305
 30
0.0
 10
392.4932164841556
 20
325.3131955254516
 30
0.0
 10
392.5200026423968
 20
325.3253329070257
 30
0.0
 10
392.5610782548483
 20
325.3467290393959
 30
0.0
 10
392.5753694453019
 20
325.3559875707519
 30
0.0
 10
392.5850541441922
 20
325.3657821434162
 30
0.0
 10
392.5865804455345
 20
325.36765441136
 30
0.0
 10
392.5887820651955
 20
325.3711947371879
 30
0.0
 10
392.5908205443379
 20
325.3762093827843
 30
0.0
 10
392.5891205121141
 20
325.380369171384
 30
0.0
 10
392.5808085913453
 20
325.387630114378
 30
0.0
 10
392.5687412978539
 20
325.3910599230157
 30
0.0
 10
392.5407183133656
 20
325.3943892044351
 30
0.0
 10
392.529717945034
 20
325.3951961516168
 30
0.0
 10
392.5043026858023
 20
325.396253335834
 30
0.0
 10
392.4899601759171
 20
325.3965002267597
 30
0.0
 10
392.4740094582679
 20
325.3965002267597
 30
0.0
  0
SPLINE
  5
160
330
1F
100
AcDbEntity
  8
1
  6
Continuous
 62
    30
370
    18
100
AcDbSpline
210
0.0
220
0.0
230
1.0
 70
     8
 71
     3
 72
   115
 73
   111
 74
     0
 42
0.000000001
 43
0.0000000001
 40
0.0
 40
0.0
 40
0.0
 40
0.0
 40
0.0312499999999886
 40
0.0312499999999886
 40
0.0624999999999772
 40
0.0624999999999772
 40
0.0703124999999721
 40
0.0703124999999721
 40
0.0781249999999669
 40
0.0937499999999565
 40
0.0937499999999565
 40
0.1249999999999353
 40
0.1249999999999353
 40
0.1406249999999215
 40
0.1406249999999215
 40
0.1484374999999148
 40
0.1484374999999148
 40
0.1562499999999081
 40
0.1562499999999081
 40
0.1874999999998817
 40
0.1874999999998817
 40
0.2187499999998554
 40
0.2187499999998554
 40
0.2265624999998508
 40
0.2265624999998508
 40
0.2343749999998463
 40
0.2343749999998463
 40
0.2499999999998458
 40
0.2499999999998458
 40
0.2812499999998451
 40
0.2812499999998451
 40
0.2968749999998406
 40
0.2968749999998406
 40
0.3124999999998361
 40
0.3124999999998361
 40
0.3437499999998346
 40
0.3437499999998346
 40
0.3749999999998332
 40
0.3749999999998332
 40
0.3828124999998345
 40
0.3828124999998345
 40
0.3906249999998356
 40
0.4062499999998454
 40
0.4062499999998454
 40
0.4374999999998594
 40
0.4374999999998594
 40
0.4453124999998606
 40
0.4453124999998606
 40
0.4531249999998617
 40
0.4531249999998617
 40
0.4687499999998601
 40
0.4687499999998601
 40
0.4999999999998569
 40
0.4999999999998569
 40
0.5156249999998569
 40
0.5156249999998569
 40
0.5234374999998586
 40
0.5234374999998586
 40
0.5312499999998602
 40
0.5312499999998602
 40
0.562499999999866
 40
0.562499999999866
 40
0.5703124999998679
 40
0.5703124999998679
 40
0.5781249999998698
 40
0.5781249999998698
 40
0.5937499999998738
 40
0.5937499999998738
 40
0.6249999999998799
 40
0.6249999999998799
 40
0.6406249999998835
 40
0.6406249999998835
 40
0.6484374999998853
 40
0.6484374999998853
 40
0.656249999999887
 40
0.656249999999887
 40
0.6874999999998981
 40
0.6874999999998981
 40
0.7187499999999093
 40
0.7187499999999093
 40
0.7343749999999147
 40
0.7343749999999147
 40
0.7499999999999203
 40
0.7499999999999203
 40
0.781249999999926
 40
0.781249999999926
 40
0.7890624999999273
 40
0.7890624999999273
 40
0.7968749999999285
 40
0.7968749999999285
 40
0.8124999999999393
 40
0.8124999999999393
 40
0.8437499999999684
 40
0.8437499999999684
 40
0.8593749999999791
 40
0.8593749999999791
 40
0.8671874999999808
 40
0.8671874999999808
 40
0.8749999999999825
 40
0.8749999999999825
 40
0.9062499999999881
 40
0.9062499999999881
 40
0.9374999999999937
 40
0.9374999999999937
 40
0.9453124999999974
 40
0.9453124999999974
 40
0.9531250000000011
 40
0.9687500000000008
 40
0.9687500000000008
 40
1.0
 40
1.0
 40
1.0
 40
1.0
 10
386.2002477463596
 20
324.3965002267597
 30
0.0
 10
386.2813119327726
 20
324.4320482144747
 30
0.0
 10
386.3583873730103
 20
324.4681591905961
 30
0.0
 10
386.5049472522541
 20
324.5409607989528
 30
0.0
 10
386.5744307845038
 20
324.5776533976995
 30
0.0
 10
386.6564576341649
 20
324.6236266207957
 30
0.0
 10
386.6725873047416
 20
324.6328087980043
 30
0.0
 10
386.7041519621508
 20
324.6510580435554
 30
0.0
 10
386.7505245905316
 20
324.6782974387427
 30
0.0
 10
386.7940119547582
 20
324.7051143633503
 30
0.0
 10
386.8771826242931
 20
324.7581389377044
 30
0.0
 10
386.927577236565
 20
324.7926754099227
 30
0.0
 10
386.9954056732794
 20
324.8430986760679
 30
0.0
 10
387.0167164311393
 20
324.8596764452532
 30
0.0
 10
387.0466644793235
 20
324.884179649629
 30
0.0
 10
387.0563250431358
 20
324.8922995181572
 30
0.0
 10
387.0748873964214
 20
324.9083548846711
 30
0.0
 10
387.0837694621315
 20
324.9162725001484
 30
0.0
 10
387.1262011476294
 20
324.9553163076146
 30
0.0
 10
387.1538429891419
 20
324.9848112351202
 30
0.0
 10
387.1964921713885
 20
325.0404490405509
 30
0.0
 10
387.2115021937527
 20
325.0665915021042
 30
0.0
 10
387.22188943563
 20
325.0972343087136
 30
0.0
 10
387.2235461356257
 20
325.1032610446808
 30
0.0
 10
387.2259975139999
 20
325.1151121425582
 30
0.0
 10
387.2267890848473
 20
325.1209323738588
 30
0.0
 10
387.2278422803126
 20
325.1379463860263
 30
0.0
 10
387.226796458964
 20
325.1487454317126
 30
0.0
 10
387.2184780418187
 20
325.17962198498
 30
0.0
 10
387.2060488613221
 20
325.1981819453187
 30
0.0
 10
387.1768890276379
 20
325.2233573259123
 30
0.0
 10
387.165410421806
 20
325.2313041909226
 30
0.0
 10
387.1388261882317
 20
325.2463616089143
 30
0.0
 10
387.123649787162
 20
325.253493587677
 30
0.0
 10
387.0732992291121
 20
325.2734029109673
 30
0.0
 10
387.0332222288979
 20
325.2848022659918
 30
0.0
 10
386.9402845792927
 20
325.3046153566949
 30
0.0
 10
386.887425749744
 20
325.313027116237
 30
0.0
 10
386.8130219591596
 20
325.3220288870922
 30
0.0
 10
386.7977219749904
 20
325.3237525897411
 30
0.0
 10
386.7665413482189
 20
325.3270291330159
 30
0.0
 10
386.7188056411555
 20
325.3316991400576
 30
0.0
 10
386.6682178929335
 20
325.335690296675
 30
0.0
 10
386.5632946361378
 20
325.3428883803067
 30
0.0
 10
386.4883685010357
 20
325.346649120686
 30
0.0
 10
386.3883748771595
 20
325.3503283139781
 30
0.0
 10
386.3680577884838
 20
325.3510124523704
 30
0.0
 10
386.3267775199636
 20
325.352281784893
 30
0.0
 10
386.3057822378795
 20
325.35286760575
 30
0.0
 10
386.2423185646073
 20
325.3544700946816
 30
0.0
 10
386.1992391294676
 20
325.3553372456864
 30
0.0
 10
386.0677460421548
 20
325.3573979682722
 30
0.0
 10
385.9770892033903
 20
325.3580597341459
 30
0.0
 10
385.8366169566699
 20
325.3580637216245
 30
0.0
 10
385.7890421413201
 20
325.3578980225342
 30
0.0
 10
385.7165271086261
 20
325.3573879870165
 30
0.0
 10
385.6921178041424
 20
325.3571737182846
 30
0.0
 10
385.6431713678113
 20
325.3566569881572
 30
0.0
 10
385.6186389429996
 20
325.3563547780068
 30
0.0
 10
385.4956842132308
 20
325.3546196533021
 30
0.0
 10
385.3963885496756
 20
325.3525257614872
 30
0.0
 10
385.2711133270172
 20
325.3488365069244
 30
0.0
 10
385.2460002228074
 20
325.3480443498506
 30
0.0
 10
385.1956570037904
 20
325.3463437310485
 30
0.0
 10
385.1703760368032
 20
325.3454332169702
 30
0.0
 10
385.09485525946
 20
325.3425335213788
 30
0.0
 10
385.0448300485663
 20
325.3403738127311
 30
0.0
 10
384.8956996120269
 20
325.3331371736568
 30
0.0
 10
384.7975346844207
 20
325.3273101951574
 30
0.0
 10
384.6521810814351
 20
325.3166277248113
 30
0.0
 10
384.6040467441343
 20
325.3127414555323
 30
0.0
 10
384.5323333648786
 20
325.3063505936664
 30
0.0
 10
384.5084858657947
 20
325.304124178249
 30
0.0
 10
384.4610629821944
 20
325.2994802414541
 30
0.0
 10
384.4375843127801
 20
325.297072395985
 30
0.0
 10
384.3213367801934
 20
325.2845840456318
 30
0.0
 10
384.2319882945099
 20
325.2731616705414
 30
0.0
 10
384.060415138159
 20
325.2468644179806
 30
0.0
 10
383.9781905745605
 20
325.2319917607662
 30
0.0
 10
383.8603814622704
 20
325.2065250293624
 30
0.0
 10
383.8224379982445
 20
325.1975929662233
 30
0.0
 10
383.7493746107592
 20
325.178859239515
 30
0.0
 10
383.7142111033986
 20
325.1690481793095
 30
0.0
 10
383.6127401699842
 20
325.1382149763226
 30
0.0
 10
383.5504345445291
 20
325.1157957670704
 30
0.0
 10
383.4792248858045
 20
325.0851806159974
 30
0.0
 10
383.4653179894261
 20
325.0789277979537
 30
0.0
 10
383.4381799065727
 20
325.0661550216561
 30
0.0
 10
383.4249613995046
 20
325.0596396806134
 30
0.0
 10
383.3866142625974
 20
325.0398384348642
 30
0.0
 10
383.3626889065474
 20
325.026249599848
 30
0.0
 10
383.2956618277858
 20
324.9843144549239
 30
0.0
 10
383.2572880953563
 20
324.9548001554856
 30
0.0
 10
383.2089308536975
 20
324.9081634014067
 30
0.0
 10
383.1943510364279
 20
324.8922234461189
 30
0.0
 10
383.1748054937557
 20
324.8677167340693
 30
0.0
 10
383.1686686783105
 20
324.8594337010994
 30
0.0
 10
383.1572412033304
 20
324.8427652285008
 30
0.0
 10
383.1519457119865
 20
324.834376130174
 30
0.0
 10
383.1275188914897
 20
324.7921647686148
 30
0.0
 10
383.1145089191941
 20
324.7575436474819
 30
0.0
 10
383.1010248795664
 20
324.686830956478
 30
0.0
 10
383.1005510634068
 20
324.6507384380733
 30
0.0
 10
383.1079363853504
 20
324.6048776190852
 30
0.0
 10
383.1098178965335
 20
324.5956581934831
 30
0.0
 10
383.1143590272425
 20
324.577272485606
 30
0.0
 10
383.1223424283708
 20
324.5497337519031
 30
0.0
 10
383.1337909790844
 20
324.5223409309982
 30
0.0
 10
383.1612452515762
 20
324.4678302194584
 30
0.0
 10
383.1855998578298
 20
324.4318511397768
 30
0.0
 10
383.2161310733135
 20
324.3965002267674
 30
0.0
  0
SPLINE
  5
161
330
1F
100
AcDbEntity
  8
1
  6
Continuous
 62
    30
370
    18
100
AcDbSpline
210
0.0
220
0.0
230
1.0
 70
     8
 71
     3
 72
    69
 73
    65
 74
     0
 42
0.000000001
 43
0.0000000001
 40
0.0
 40
0.0
 40
0.0
 40
0.0
 40
0.0131279980277709
 40
0.0131279980277709
 40
0.0460237314268571
 40
0.0460237314268571
 40
0.0624715981264002
 40
0.0624715981264002
 40
0.0789194648259432
 40
0.0789194648259432
 40
0.1447109316241159
 40
0.1447109316241159
 40
0.1776066650232022
 40
0.1776066650232022
 40
0.1940545317227387
 40
0.1940545317227387
 40
0.2105023984222752
 40
0.2105023984222752
 40
0.2762938652204334
 40
0.2762938652204334
 40
0.2927417319199656
 40
0.2927417319199656
 40
0.3091895986194979
 40
0.3091895986194979
 40
0.3420853320185638
 40
0.3420853320185638
 40
0.4078767988166944
 40
0.4078767988166944
 40
0.4243246655162276
 40
0.4243246655162276
 40
0.4407725322157608
 40
0.4407725322157608
 40
0.4736682656148303
 40
0.4736682656148303
 40
0.5394597324129673
 40
0.5394597324129673
 40
0.5559075991124998
 40
0.5559075991124998
 40
0.5723554658120322
 40
0.5723554658120322
 40
0.6052511992110992
 40
0.638146932610166
 40
0.638146932610166
 40
0.6545947993097012
 40
0.6545947993097012
 40
0.6710426660092363
 40
0.6710426660092363
 40
0.7368341328073724
 40
0.7368341328073724
 40
0.7697298662064412
 40
0.7697298662064412
 40
0.7861777329059803
 40
0.7861777329059803
 40
0.8026255996055193
 40
0.8026255996055193
 40
0.8684170664036741
 40
0.8684170664036741
 40
0.8848649331032149
 40
0.8848649331032149
 40
0.9013127998027557
 40
0.9013127998027557
 40
0.9342085332018372
 40
0.9342085332018372
 40
1.0
 40
1.0
 40
1.0
 40
1.0
 10
435.6273598258217
 20
287.4013115282499
 30
0.0
 10
435.6273527376384
 20
287.40209475011
 30
0.0
 10
435.6268756027309
 20
287.4029694775248
 30
0.0
 10
435.6235700696172
 20
287.4063461782607
 30
0.0
 10
435.6182630844417
 20
287.4093160500785
 30
0.0
 10
435.605811542068
 20
287.4145377146418
 30
0.0
 10
435.6009113063932
 20
287.4164060863534
 30
0.0
 10
435.5895835550461
 20
287.4203870943837
 30
0.0
 10
435.5831716901919
 20
287.4224935228768
 30
0.0
 10
435.5476384000851
 20
287.4334844450399
 30
0.0
 10
435.5080115613069
 20
287.4438039291325
 30
0.0
 10
435.4321452890126
 20
287.4606026957244
 30
0.0
 10
435.4041007150977
 20
287.4664231912252
 30
0.0
 10
435.3577786881443
 20
287.4753650790893
 30
0.0
 10
435.3416246179061
 20
287.4783806567207
 30
0.0
 10
435.3082297964446
 20
287.4843976706699
 30
0.0
 10
435.2909496287966
 20
287.4874068933033
 30
0.0
 10
435.2016781317313
 20
287.5024028425885
 30
0.0
 10
435.1211504625234
 20
287.5142378222289
 30
0.0
 10
435.00901841248
 20
287.5280026947364
 30
0.0
 10
434.9860136402429
 20
287.530704227401
 30
0.0
 10
434.9388256993441
 20
287.5359832476154
 30
0.0
 10
434.9145790135212
 20
287.5385667948874
 30
0.0
 10
434.8407163787236
 20
287.5460310754224
 30
0.0
 10
434.789881018343
 20
287.5506392153011
 30
0.0
 10
434.6327125162954
 20
287.5631956046908
 30
0.0
 10
434.5217568004568
 20
287.5698763537578
 30
0.0
 10
434.375123479446
 20
287.5755906057945
 30
0.0
 10
434.3453485515551
 20
287.5766029548483
 30
0.0
 10
434.2851924556481
 20
287.5783444090989
 30
0.0
 10
434.254954500418
 20
287.5790698552001
 30
0.0
 10
434.1637702948765
 20
287.5808110662598
 30
0.0
 10
434.1023547182236
 20
287.5813916181131
 30
0.0
 10
433.9162658470062
 20
287.5814013196489
 30
0.0
 10
433.7897668336467
 20
287.5790968767653
 30
0.0
 10
433.6284702262744
 20
287.5733793228276
 30
0.0
 10
433.5962427653963
 20
287.5721006337147
 30
0.0
 10
433.5320538768829
 20
287.5692950733479
 30
0.0
 10
433.5000592127679
 20
287.5677670294324
 30
0.0
 10
433.4043690227572
 20
287.5628289626891
 30
0.0
 10
433.2775644068242
 20
287.5553010275531
 30
0.0
 10
433.1522947787952
 20
287.5461155671999
 30
0.0
 10
433.0589211837516
 20
287.5386926473078
 30
0.0
 10
433.0278932358998
 20
287.5361294225474
 30
0.0
 10
432.9660328520476
 20
287.5308404342915
 30
0.0
 10
432.9352910192748
 20
287.5281220613137
 30
0.0
 10
432.7835778595948
 20
287.514308658821
 30
0.0
 10
432.6675119903081
 20
287.50246264679
 30
0.0
 10
432.5011136933471
 20
287.4845078490718
 30
0.0
 10
432.4469395401001
 20
287.4784915356086
 30
0.0
 10
432.3676626976444
 20
287.4695502303053
 30
0.0
 10
432.3415546575775
 20
287.4665820825535
 30
0.0
 10
432.2905435272704
 20
287.4607571981522
 30
0.0
 10
432.2655708637614
 20
287.4578926560499
 30
0.0
 10
432.1433275109694
 20
287.443858190942
 30
0.0
 10
432.0538475646068
 20
287.4335514115641
 30
0.0
 10
431.9523883067623
 20
287.4225955324226
 30
0.0
 10
431.9326203140041
 20
287.4205009117027
 30
0.0
 10
431.8941497813319
 20
287.4165254065254
 30
0.0
 10
431.8754019060931
 20
287.4146402152555
 30
0.0
 10
431.8211977453116
 20
287.409376131738
 30
0.0
 10
431.7877711646178
 20
287.406386708598
 30
0.0
 10
431.6954363305399
 20
287.3991063837647
 30
0.0
 10
431.6444026054741
 20
287.3965002267596
 30
0.0
 10
431.604250924626
 20
287.3965002267596
 30
0.0
  0
SPLINE
  5
162
330
1F
100
AcDbEntity
  8
1
  6
Continuous
 62
    30
370
    18
100
AcDbSpline
210
0.0
220
0.0
230
1.0
 70
     8
 71
     3
 72
   111
 73
   107
 74
     0
 42
0.000000001
 43
0.0000000001
 40
0.0
 40
0.0
 40
0.0
 40
0.0
 40
0.0312499999999954
 40
0.0312499999999954
 40
0.0624999999999909
 40
0.0624999999999909
 40
0.0703124999999901
 40
0.0703124999999901
 40
0.0781249999999893
 40
0.0781249999999893
 40
0.0937499999999883
 40
0.0937499999999883
 40
0.1249999999999784
 40
0.1249999999999784
 40
0.1406249999999732
 40
0.1406249999999732
 40
0.1562499999999681
 40
0.1562499999999681
 40
0.1874999999999668
 40
0.2187499999999654
 40
0.2187499999999654
 40
0.2265624999999672
 40
0.2265624999999672
 40
0.2343749999999689
 40
0.2499999999999722
 40
0.2499999999999722
 40
0.2812499999999871
 40
0.2812499999999871
 40
0.2968749999999947
 40
0.2968749999999947
 40
0.3046874999999982
 40
0.3046874999999982
 40
0.3125000000000018
 40
0.3125000000000018
 40
0.3437500000000325
 40
0.3437500000000325
 40
0.3750000000000631
 40
0.3750000000000631
 40
0.382812500000066
 40
0.382812500000066
 40
0.3906250000000689
 40
0.4062500000000683
 40
0.4062500000000683
 40
0.4375000000000671
 40
0.4375000000000671
 40
0.453125000000067
 40
0.453125000000067
 40
0.4609375000000653
 40
0.4609375000000653
 40
0.4687500000000636
 40
0.4687500000000636
 40
0.5000000000000541
 40
0.5000000000000541
 40
0.5312500000000445
 40
0.5312500000000445
 40
0.5468750000000396
 40
0.5468750000000396
 40
0.562500000000035
 40
0.562500000000035
 40
0.5937500000000242
 40
0.5937500000000242
 40
0.6015625000000201
 40
0.6015625000000201
 40
0.6093750000000159
 40
0.6093750000000159
 40
0.6250000000000082
 40
0.6250000000000082
 40
0.6562499999999948
 40
0.6562499999999948
 40
0.6718749999999863
 40
0.6718749999999863
 40
0.6796874999999841
 40
0.6796874999999841
 40
0.6874999999999819
 40
0.6874999999999819
 40
0.7187499999999806
 40
0.7187499999999806
 40
0.7499999999999791
 40
0.7499999999999791
 40
0.7578124999999737
 40
0.7578124999999737
 40
0.7656249999999682
 40
0.781249999999957
 40
0.781249999999957
 40
0.8124999999999345
 40
0.8124999999999345
 40
0.8281249999999271
 40
0.8281249999999271
 40
0.8359374999999236
 40
0.8359374999999236
 40
0.8437499999999201
 40
0.8437499999999201
 40
0.8749999999999308
 40
0.8749999999999308
 40
0.9062499999999416
 40
0.9062499999999416
 40
0.9140624999999443
 40
0.9140624999999443
 40
0.9218749999999469
 40
0.9374999999999611
 40
0.9374999999999611
 40
0.9687499999999805
 40
0.9687499999999805
 40
0.9843749999999903
 40
0.9843749999999903
 40
1.0
 40
1.0
 40
1.0
 40
1.0
 10
440.1653372169674
 20
287.3965002267596
 30
0.0
 10
440.2425412594809
 20
287.3965002267596
 30
0.0
 10
440.3147725548662
 20
287.3974862392091
 30
0.0
 10
440.4496907435811
 20
287.4018784515579
 30
0.0
 10
440.5123764722377
 20
287.4052830949286
 30
0.0
 10
440.5846694960961
 20
287.4113491517874
 30
0.0
 10
440.5988235412569
 20
287.4126530190933
 30
0.0
 10
440.6265144898152
 20
287.4154502465734
 30
0.0
 10
440.6400736800049
 20
287.4169466328773
 30
0.0
 10
440.6795254256331
 20
287.4216965699559
 30
0.0
 10
440.7042667148931
 20
287.4252164441465
 30
0.0
 10
440.7739396470626
 20
287.4368578105318
 30
0.0
 10
440.814340904182
 20
287.4460605341367
 30
0.0
 10
440.8659904065017
 20
287.4621207966296
 30
0.0
 10
440.8817096431616
 20
287.467850349844
 30
0.0
 10
440.910109797687
 20
287.480079222767
 30
0.0
 10
440.9228206137453
 20
287.4866035890074
 30
0.0
 10
440.955838165823
 20
287.5070583838779
 30
0.0
 10
440.9866330710446
 20
287.5367792296084
 30
0.0
 10
440.9919826172327
 20
287.5709484806152
 30
0.0
 10
440.9872241796371
 20
287.5935507165824
 30
0.0
 10
440.9858616705692
 20
287.5981421502422
 30
0.0
 10
440.9823344019466
 20
287.6073910493599
 30
0.0
 10
440.9758443164716
 20
287.6213662128526
 30
0.0
 10
440.9658183800422
 20
287.6356158886316
 30
0.0
 10
440.9411465305025
 20
287.6643981715283
 30
0.0
 10
440.918561257795
 20
287.6839652534006
 30
0.0
 10
440.8754343925647
 20
287.7135341840452
 30
0.0
 10
440.8595116696753
 20
287.7234265517636
 30
0.0
 10
440.8332480379778
 20
287.7382706566952
 30
0.0
 10
440.82408408969
 20
287.7432253112158
 30
0.0
 10
440.8050907264888
 20
287.7530562817054
 30
0.0
 10
440.7952481267357
 20
287.7579405903667
 30
0.0
 10
440.7443252035724
 20
287.7821865938748
 30
0.0
 10
440.6981407111824
 20
287.8010243911231
 30
0.0
 10
440.5949622438259
 20
287.8370416074364
 30
0.0
 10
440.5379703042519
 20
287.8542231998586
 30
0.0
 10
440.4596103043332
 20
287.8742638673379
 30
0.0
 10
440.4435491299603
 20
287.8782068482406
 30
0.0
 10
440.4109322682888
 20
287.8858823559158
 30
0.0
 10
440.3612202510968
 20
287.8970931946774
 30
0.0
 10
440.3091752011381
 20
287.9073712511434
 30
0.0
 10
440.2020033048092
 20
287.926608402825
 30
0.0
 10
440.1264612233134
 20
287.9376781482936
 30
0.0
 10
440.0068527043368
 20
287.9512935956133
 30
0.0
 10
439.9659303158014
 20
287.9553330626131
 30
0.0
 10
439.9029122759739
 20
287.960589914972
 30
0.0
 10
439.8815894786039
 20
287.9622110490063
 30
0.0
 10
439.8387178991954
 20
287.9651544626125
 30
0.0
 10
439.817147585831
 20
287.9664792200943
 30
0.0
 10
439.7086324364142
 20
287.9723701557576
 30
0.0
 10
439.6197063736315
 20
287.9747412556239
 30
0.0
 10
439.4377000864827
 20
287.9747912187792
 30
0.0
 10
439.3446203059735
 20
287.972470353933
 30
0.0
 10
439.2017580883439
 20
287.9653956825011
 30
0.0
 10
439.1541289934562
 20
287.9624635551618
 30
0.0
 10
439.0590626795798
 20
287.9555275720129
 30
0.0
 10
439.0115900945696
 20
287.9515219138368
 30
0.0
 10
438.869345078385
 20
287.937977349202
 30
0.0
 10
438.7747450156794
 20
287.9269136411738
 30
0.0
 10
438.6567588182634
 20
287.9107766295169
 30
0.0
 10
438.633174802579
 20
287.9074336336263
 30
0.0
 10
438.5860327453508
 20
287.9005214765878
 30
0.0
 10
438.5625138799505
 20
287.8969576361548
 30
0.0
 10
438.4925168776605
 20
287.886020198231
 30
0.0
 10
438.4464386325097
 20
287.8783778922021
 30
0.0
 10
438.3098976484165
 20
287.8545243164634
 30
0.0
 10
438.2211206979867
 20
287.8373893550396
 30
0.0
 10
438.0912244119953
 20
287.8102682793452
 30
0.0
 10
438.0484725346101
 20
287.8009906408865
 30
0.0
 10
437.9851700990106
 20
287.7867661068225
 30
0.0
 10
437.9641725874326
 20
287.7819650591731
 30
0.0
 10
437.9227212650244
 20
287.7723302973031
 30
0.0
 10
437.9022470432853
 20
287.7674922871252
 30
0.0
 10
437.8011103938691
 20
287.7432224452671
 30
0.0
 10
437.7241323309246
 20
287.7235545631098
 30
0.0
 10
437.5777744841961
 20
287.6842502560964
 30
0.0
 10
437.5083946157771
 20
287.664612025311
 30
0.0
 10
437.426549496816
 20
287.6403834062721
 30
0.0
 10
437.4104133674351
 20
287.6355496457487
 30
0.0
 10
437.3788727384732
 20
287.6259928011092
 30
0.0
 10
437.3325704253361
 20
287.6117973758865
 30
0.0
 10
437.2892508349066
 20
287.5980448575897
 30
0.0
 10
437.2065312245138
 20
287.5711894417559
 30
0.0
 10
437.1565916608236
 20
287.5541521339974
 30
0.0
 10
437.0896160438107
 20
287.5301211650653
 30
0.0
 10
437.0686178696252
 20
287.5223649221265
 30
0.0
 10
437.039172535673
 20
287.5111400376585
 30
0.0
 10
437.0296845380622
 20
287.5074604860474
 30
0.0
 10
437.0115375603465
 20
287.5002946563204
 30
0.0
 10
437.0028653223226
 20
287.4968035505888
 30
0.0
 10
436.9614868860577
 20
287.4798049280676
 30
0.0
 10
436.9347007278165
 20
287.4676675464935
 30
0.0
 10
436.8936251153651
 20
287.4462714141233
 30
0.0
 10
436.8793339249114
 20
287.4370128827673
 30
0.0
 10
436.8696492260212
 20
287.4272183101031
 30
0.0
 10
436.8681229246789
 20
287.4253460421593
 30
0.0
 10
436.8659213050179
 20
287.4218057163313
 30
0.0
 10
436.8638828258755
 20
287.416791070735
 30
0.0
 10
436.8655828580993
 20
287.4126312821352
 30
0.0
 10
436.8738947788681
 20
287.4053703391413
 30
0.0
 10
436.8859620723595
 20
287.4019405305035
 30
0.0
 10
436.9139850568478
 20
287.3986112490841
 30
0.0
 10
436.9249854251794
 20
287.3978043019025
 30
0.0
 10
436.9504006844111
 20
287.3967471176853
 30
0.0
 10
436.9647431942963
 20
287.3965002267596
 30
0.0
 10
436.9806939119455
 20
287.3965002267596
 30
0.0
  0
ENDSEC
  0
SECTION
  2
OBJECTS
  0
DICTIONARY
  5
C
330
0
100
AcDbDictionary
281
     1
  3
ACAD_DETAILVIEWSTYLE
350
1B7
  3
ACAD_GROUP
350
D
  3
ACAD_LAYOUT
350
1A
  3
ACAD_MATERIAL
350
43
  3
ACAD_MLEADERSTYLE
350
6B
  3
ACAD_MLINESTYLE
350
17
  3
ACAD_PLOTSETTINGS
350
19
  3
ACAD_PLOTSTYLENAME
350
E
  3
ACAD_SCALELIST
350
47
  3
ACAD_SECTIONVIEWSTYLE
350
1B8
  3
ACAD_TABLESTYLE
350
69
  3
ACAD_VISUALSTYLE
350
2A
  3
ACDB_RECOMPOSE_DATA
350
1B4
  3
AcDbVariableDictionary
350
174
  0
DICTIONARY
  5
172
330
8
100
AcDbDictionary
280
     1
281
     1
  3
ACAD_XREC_ROUNDTRIP
360
173
  0
DICTIONARY
  5
1B7
102
{ACAD_REACTORS
330
C
102
}
330
C
100
AcDbDictionary
281
     1
  0
DICTIONARY
  5
D
102
{ACAD_REACTORS
330
C
102
}
330
C
100
AcDbDictionary
281
     1
  0
DICTIONARY
  5
1A
102
{ACAD_REACTORS
330
C
102
}
330
C
100
AcDbDictionary
281
     1
  3
Layout1
350
1E
  3
Layout2
350
26
  3
Model
350
22
  0
DICTIONARY
  5
43
102
{ACAD_REACTORS
330
C
102
}
330
C
100
AcDbDictionary
281
     1
  3
ByBlock
350
45
  3
ByLayer
350
44
  3
Global
350
46
  0
DICTIONARY
  5
6B
102
{ACAD_REACTORS
330
C
102
}
330
C
100
AcDbDictionary
281
     1
  3
Standard
350
6C
  0
DICTIONARY
  5
17
102
{ACAD_REACTORS
330
C
102
}
330
C
100
AcDbDictionary
281
     1
  3
Standard
350
18
  0
DICTIONARY
  5
19
102
{ACAD_REACTORS
330
C
102
}
330
C
100
AcDbDictionary
281
     1
  0
ACDBDICTIONARYWDFLT
  5
E
102
{ACAD_REACTORS
330
C
102
}
330
C
100
AcDbDictionary
281
     1
  3
Normal
350
F
100
AcDbDictionaryWithDefault
340
F
  0
DICTIONARY
  5
47
102
{ACAD_REACTORS
330
C
102
}
330
C
100
AcDbDictionary
281
     1
  3
A0
350
48
  3
A1
350
49
  3
A2
350
4A
  3
A3
350
4B
  3
A4
350
4C
  3
A5
350
4D
  3
A6
350
4E
  3
A7
350
4F
  3
A8
350
50
  3
A9
350
51
  3
B0
350
52
  3
B1
350
53
  3
B2
350
54
  3
B3
350
55
  3
B4
350
56
  3
B5
350
57
  3
B6
350
58
  3
B7
350
59
  3
B8
350
5A
  3
B9
350
5B
  3
C0
350
5C
  3
C1
350
5D
  3
C2
350
5E
  3
C3
350
5F
  3
C4
350
60
  3
C5
350
61
  3
C6
350
62
  3
C7
350
63
  3
C8
350
64
  3
C9
350
65
  3
D0
350
66
  3
D1
350
67
  3
D2
350
68
  0
DICTIONARY
  5
1B8
102
{ACAD_REACTORS
330
C
102
}
330
C
100
AcDbDictionary
281
     1
  0
DICTIONARY
  5
69
102
{ACAD_REACTORS
330
C
102
}
330
C
100
AcDbDictionary
281
     1
  3
Standard
350
6A
  0
DICTIONARY
  5
2A
102
{ACAD_REACTORS
330
C
102
}
330
C
100
AcDbDictionary
281
     1
  3
2dWireframe
350
2F
  3
Basic
350
32
  3
Brighten
350
36
  3
ColorChange
350
3A
  3
Conceptual
350
34
  3
Dim
350
35
  3
EdgeColorOff
350
3D
  3
Facepattern
350
39
  3
Flat
350
2B
  3
FlatWithEdges
350
2C
  3
Gouraud
350
2D
  3
GouraudWithEdges
350
2E
  3
Hidden
350
31
  3
JitterOff
350
3B
  3
Linepattern
350
38
  3
OverhangOff
350
3C
  3
Realistic
350
33
  3
Shaded
350
42
  3
Shaded with edges
350
41
  3
Shades of Gray
350
3E
  3
Sketchy
350
3F
  3
Thicken
350
37
  3
Wireframe
350
30
  3
X-Ray
350
40
  0
XRECORD
  5
1B4
102
{ACAD_REACTORS
330
C
102
}
330
C
100
AcDbXrecord
280
     1
 90
        1
330
6A
  0
DICTIONARY
  5
174
102
{ACAD_REACTORS
330
C
102
}
330
C
100
AcDbDictionary
281
     1
  3
CANNOSCALE
350
175
  3
CMLEADERSTYLE
350
1B6
  3
CTABLESTYLE
350
1B5
  3
MSLTSCALE
350
176
  3
XCLIPFRAME
350
177
  0
XRECORD
  5
173
102
{ACAD_REACTORS
330
172
102
}
330
172
100
AcDbXrecord
280
     1
102
VTR_0.000_0.000_1.000_1.000_VISUALSTYLE
340
2F
102
VTR_0.000_0.000_1.000_1.000_GRIDDISPLAY
 70
     3
102
VTR_0.000_0.000_1.000_1.000_GRIDMAJOR
 70
     5
102
VTR_0.000_0.000_1.000_1.000_DEFAULTLIGHTING
280
     1
102
VTR_0.000_0.000_1.000_1.000_DEFAULTLIGHTINGTYPE
 70
     1
102
VTR_0.000_0.000_1.000_1.000_BRIGHTNESS
141
0.0
102
VTR_0.000_0.000_1.000_1.000_CONTRAST
142
0.0
102
VTR_0.000_0.000_0.500_1.000_VISUALSTYLE
340
2F
102
VTR_0.000_0.000_0.500_1.000_GRIDDISPLAY
 70
     3
102
VTR_0.000_0.000_0.500_1.000_GRIDMAJOR
 70
     5
102
VTR_0.000_0.000_0.500_1.000_DEFAULTLIGHTING
280
     1
102
VTR_0.000_0.000_0.500_1.000_DEFAULTLIGHTINGTYPE
 70
     1
102
VTR_0.000_0.000_0.500_1.000_BRIGHTNESS
141
0.0
102
VTR_0.000_0.000_0.500_1.000_CONTRAST
142
0.0
102
VTR_0.500_0.000_1.000_1.000_VISUALSTYLE
340
2F
102
VTR_0.500_0.000_1.000_1.000_GRIDDISPLAY
 70
     3
102
VTR_0.500_0.000_1.000_1.000_GRIDMAJOR
 70
     5
102
VTR_0.500_0.000_1.000_1.000_DEFAULTLIGHTING
280
     1
102
VTR_0.500_0.000_1.000_1.000_DEFAULTLIGHTINGTYPE
 70
     1
102
VTR_0.500_0.000_1.000_1.000_BRIGHTNESS
141
0.0
102
VTR_0.500_0.000_1.000_1.000_CONTRAST
142
0.0
102
VTR_0.000_0.500_1.000_1.000_VISUALSTYLE
340
2F
102
VTR_0.000_0.500_1.000_1.000_GRIDDISPLAY
 70
     3
102
VTR_0.000_0.500_1.000_1.000_GRIDMAJOR
 70
     5
102
VTR_0.000_0.500_1.000_1.000_DEFAULTLIGHTING
280
     1
102
VTR_0.000_0.500_1.000_1.000_DEFAULTLIGHTINGTYPE
 70
     1
102
VTR_0.000_0.500_1.000_1.000_BRIGHTNESS
141
0.0
102
VTR_0.000_0.500_1.000_1.000_CONTRAST
142
0.0
102
VTR_0.000_0.000_1.000_0.500_VISUALSTYLE
340
2F
102
VTR_0.000_0.000_1.000_0.500_GRIDDISPLAY
 70
     3
102
VTR_0.000_0.000_1.000_0.500_GRIDMAJOR
 70
     5
102
VTR_0.000_0.000_1.000_0.500_DEFAULTLIGHTING
280
     1
102
VTR_0.000_0.000_1.000_0.500_DEFAULTLIGHTINGTYPE
 70
     1
102
VTR_0.000_0.000_1.000_0.500_BRIGHTNESS
141
0.0
102
VTR_0.000_0.000_1.000_0.500_CONTRAST
142
0.0
102
VTR_0.000_0.500_0.500_1.000_VISUALSTYLE
340
2F
102
VTR_0.000_0.500_0.500_1.000_GRIDDISPLAY
 70
     3
102
VTR_0.000_0.500_0.500_1.000_GRIDMAJOR
 70
     5
102
VTR_0.000_0.500_0.500_1.000_DEFAULTLIGHTING
280
     1
102
VTR_0.000_0.500_0.500_1.000_DEFAULTLIGHTINGTYPE
 70
     1
102
VTR_0.000_0.500_0.500_1.000_BRIGHTNESS
141
0.0
102
VTR_0.000_0.500_0.500_1.000_CONTRAST
142
0.0
102
VTR_0.000_0.000_0.500_0.500_VISUALSTYLE
340
2F
102
VTR_0.000_0.000_0.500_0.500_GRIDDISPLAY
 70
     3
102
VTR_0.000_0.000_0.500_0.500_GRIDMAJOR
 70
     5
102
VTR_0.000_0.000_0.500_0.500_DEFAULTLIGHTING
280
     1
102
VTR_0.000_0.000_0.500_0.500_DEFAULTLIGHTINGTYPE
 70
     1
102
VTR_0.000_0.000_0.500_0.500_BRIGHTNESS
141
0.0
102
VTR_0.000_0.000_0.500_0.500_CONTRAST
142
0.0
102
VTR_0.500_0.000_1.000_0.500_VISUALSTYLE
340
2F
102
VTR_0.500_0.000_1.000_0.500_GRIDDISPLAY
 70
     3
102
VTR_0.500_0.000_1.000_0.500_GRIDMAJOR
 70
     5
102
VTR_0.500_0.000_1.000_0.500_DEFAULTLIGHTING
280
     1
102
VTR_0.500_0.000_1.000_0.500_DEFAULTLIGHTINGTYPE
 70
     1
102
VTR_0.500_0.000_1.000_0.500_BRIGHTNESS
141
0.0
102
VTR_0.500_0.000_1.000_0.500_CONTRAST
142
0.0
102
VTR_0.500_0.500_1.000_1.000_VISUALSTYLE
340
2F
102
VTR_0.500_0.500_1.000_1.000_GRIDDISPLAY
 70
     3
102
VTR_0.500_0.500_1.000_1.000_GRIDMAJOR
 70
     5
102
VTR_0.500_0.500_1.000_1.000_DEFAULTLIGHTING
280
     1
102
VTR_0.500_0.500_1.000_1.000_DEFAULTLIGHTINGTYPE
 70
     1
102
VTR_0.500_0.500_1.000_1.000_BRIGHTNESS
141
0.0
102
VTR_0.500_0.500_1.000_1.000_CONTRAST
142
0.0
102
VTR_0.000_0.500_0.333_1.000_VISUALSTYLE
340
2F
102
VTR_0.000_0.500_0.333_1.000_GRIDDISPLAY
 70
     3
102
VTR_0.000_0.500_0.333_1.000_GRIDMAJOR
 70
     5
102
VTR_0.000_0.500_0.333_1.000_DEFAULTLIGHTING
280
     1
102
VTR_0.000_0.500_0.333_1.000_DEFAULTLIGHTINGTYPE
 70
     1
102
VTR_0.000_0.500_0.333_1.000_BRIGHTNESS
141
0.0
102
VTR_0.000_0.500_0.333_1.000_CONTRAST
142
0.0
102
VTR_0.000_0.000_0.333_0.500_VISUALSTYLE
340
2F
102
VTR_0.000_0.000_0.333_0.500_GRIDDISPLAY
 70
     3
102
VTR_0.000_0.000_0.333_0.500_GRIDMAJOR
 70
     5
102
VTR_0.000_0.000_0.333_0.500_DEFAULTLIGHTING
280
     1
102
VTR_0.000_0.000_0.333_0.500_DEFAULTLIGHTINGTYPE
 70
     1
102
VTR_0.000_0.000_0.333_0.500_BRIGHTNESS
141
0.0
102
VTR_0.000_0.000_0.333_0.500_CONTRAST
142
0.0
102
VTR_0.333_0.500_0.667_1.000_VISUALSTYLE
340
2F
102
VTR_0.333_0.500_0.667_1.000_GRIDDISPLAY
 70
     3
102
VTR_0.333_0.500_0.667_1.000_GRIDMAJOR
 70
     5
102
VTR_0.333_0.500_0.667_1.000_DEFAULTLIGHTING
280
     1
102
VTR_0.333_0.500_0.667_1.000_DEFAULTLIGHTINGTYPE
 70
     1
102
VTR_0.333_0.500_0.667_1.000_BRIGHTNESS
141
0.0
102
VTR_0.333_0.500_0.667_1.000_CONTRAST
142
0.0
102
VTR_0.333_0.000_0.667_0.500_VISUALSTYLE
340
2F
102
VTR_0.333_0.000_0.667_0.500_GRIDDISPLAY
 70
     3
102
VTR_0.333_0.000_0.667_0.500_GRIDMAJOR
 70
     5
102
VTR_0.333_0.000_0.667_0.500_DEFAULTLIGHTING
280
     1
102
VTR_0.333_0.000_0.667_0.500_DEFAULTLIGHTINGTYPE
 70
     1
102
VTR_0.333_0.000_0.667_0.500_BRIGHTNESS
141
0.0
102
VTR_0.333_0.000_0.667_0.500_CONTRAST
142
0.0
102
VTR_0.667_0.500_1.000_1.000_VISUALSTYLE
340
2F
102
VTR_0.667_0.500_1.000_1.000_GRIDDISPLAY
 70
     3
102
VTR_0.667_0.500_1.000_1.000_GRIDMAJOR
 70
     5
102
VTR_0.667_0.500_1.000_1.000_DEFAULTLIGHTING
280
     1
102
VTR_0.667_0.500_1.000_1.000_DEFAULTLIGHTINGTYPE
 70
     1
102
VTR_0.667_0.500_1.000_1.000_BRIGHTNESS
141
0.0
102
VTR_0.667_0.500_1.000_1.000_CONTRAST
142
0.0
102
VTR_0.667_0.000_1.000_0.500_VISUALSTYLE
340
2F
102
VTR_0.667_0.000_1.000_0.500_GRIDDISPLAY
 70
     3
102
VTR_0.667_0.000_1.000_0.500_GRIDMAJOR
 70
     5
102
VTR_0.667_0.000_1.000_0.500_DEFAULTLIGHTING
280
     1
102
VTR_0.667_0.000_1.000_0.500_DEFAULTLIGHTINGTYPE
 70
     1
102
VTR_0.667_0.000_1.000_0.500_BRIGHTNESS
141
0.0
102
VTR_0.667_0.000_1.000_0.500_CONTRAST
142
0.0
  0
LAYOUT
  5
1E
102
{ACAD_REACTORS
330
1A
102
}
330
1A
100
AcDbPlotSettings
  1

  2
none_device
  4

  6

 40
0.0
 41
0.0
 42
0.0
 43
0.0
 44
0.0
 45
0.0
 46
0.0
 47
0.0
 48
0.0
 49
0.0
140
0.0
141
0.0
142
1.0
143
1.0
 70
   688
 72
     0
 73
     0
 74
     5
  7

 75
    16
 76
     0
 77
     2
 78
   300
147
1.0
148
0.0
149
0.0
100
AcDbLayout
  1
Layout1
 70
     1
 71
     1
 10
-0.5
 20
-0.5
 11
5.0
 21
5.0
 12
0.0
 22
0.0
 32
0.0
 14
-0.5
 24
-0.5
 34
-0.5
 15
5.0
 25
5.0
 35
5.0
146
0.0
 13
0.0
 23
0.0
 33
0.0
 16
1.0
 26
0.0
 36
0.0
 17
0.0
 27
1.0
 37
0.0
 76
     0
330
1B
  0
LAYOUT
  5
26
102
{ACAD_REACTORS
330
1A
102
}
330
1A
100
AcDbPlotSettings
  1

  2
none_device
  4

  6

 40
0.0
 41
0.0
 42
0.0
 43
0.0
 44
0.0
 45
0.0
 46
0.0
 47
0.0
 48
0.0
 49
0.0
140
0.0
141
0.0
142
1.0
143
1.0
 70
   688
 72
     0
 73
     0
 74
     5
  7

 75
    16
 76
     0
 77
     2
 78
   300
147
1.0
148
0.0
149
0.0
100
AcDbLayout
  1
Layout2
 70
     1
 71
     2
 10
0.0
 20
0.0
 11
0.0
 21
0.0
 12
0.0
 22
0.0
 32
0.0
 14
0.0
 24
0.0
 34
0.0
 15
0.0
 25
0.0
 35
0.0
146
0.0
 13
0.0
 23
0.0
 33
0.0
 16
1.0
 26
0.0
 36
0.0
 17
0.0
 27
1.0
 37
0.0
 76
     0
330
23
  0
LAYOUT
  5
22
102
{ACAD_REACTORS
330
1A
102
}
330
1A
100
AcDbPlotSettings
  1

  2
none_device
  4
Letter_(8.50_x_11.00_Inches)
  6

 40
6.35
 41
6.35
 42
6.350005
 43
6.350005
 44
215.9
 45
279.4
 46
0.0
 47
0.0
 48
0.0
 49
0.0
140
0.0
141
0.0
142
1.0
143
1.0
 70
  1712
 72
     0
 73
     0
 74
     0
  7

 75
     0
 76
     0
 77
     2
 78
   300
147
1.0
148
0.0
149
0.0
100
AcDbLayout
  1
Model
 70
     1
 71
     0
 10
-0.5
 20
-0.5
 11
5.0
 21
5.0
 12
0.0
 22
0.0
 32
0.0
 14
-0.5
 24
-0.5
 34
-0.5
 15
5.0
 25
5.0
 35
5.0
146
0.0
 13
0.0
 23
0.0
 33
0.0
 16
1.0
 26
0.0
 36
0.0
 17
0.0
 27
1.0
 37
0.0
 76
     0
330
1F
331
29
  0
MATERIAL
  5
45
102
{ACAD_REACTORS
330
43
102
}
102
{ACAD_XDICTIONARY
360
1AA
102
}
330
43
100
AcDbMaterial
  1
ByBlock
  0
MATERIAL
  5
44
102
{ACAD_REACTORS
330
43
102
}
102
{ACAD_XDICTIONARY
360
1A8
102
}
330
43
100
AcDbMaterial
  1
ByLayer
  0
MATERIAL
  5
46
102
{ACAD_REACTORS
330
43
102
}
102
{ACAD_XDICTIONARY
360
1AC
102
}
330
43
100
AcDbMaterial
  1
Global
  0
MLEADERSTYLE
  5
6C
102
{ACAD_REACTORS
330
6B
102
}
102
{ACAD_XDICTIONARY
360
1B2
102
}
330
6B
100
AcDbMLeaderStyle
170
     2
171
     1
172
     0
 90
        2
 40
0.0
 41
0.0
173
     1
 91
-1056964608
340
14
 92
       -2
290
     1
 42
0.09
291
     1
 43
0.36
  3
Standard
341
0
 44
0.18
300

342
11
174
     1
178
     6
175
     1
176
     0
 93
-1056964608
 45
0.18
292
     0
297
     0
 46
0.18
343
0
 94
-1056964608
 47
1.0
 49
1.0
140
1.0
293
     1
141
0.0
294
     1
177
     0
142
1.0
295
     0
296
     0
143
0.125
1001
ACAD_MLEADERVER
1070
     2
  0
MLINESTYLE
  5
18
102
{ACAD_REACTORS
330
17
102
}
330
17
100
AcDbMlineStyle
  2
Standard
 70
     0
  3

 62
   256
 51
90.0
 52
90.0
 71
     2
 49
0.5
 62
   256
  6
BYLAYER
 49
-0.5
 62
   256
  6
BYLAYER
  0
ACDBPLACEHOLDER
  5
F
102
{ACAD_REACTORS
330
E
102
}
330
E
  0
SCALE
  5
48
102
{ACAD_REACTORS
330
47
102
}
330
47
100
AcDbScale
 70
     0
300
1:1
140
1.0
141
1.0
290
     1
  0
SCALE
  5
49
102
{ACAD_REACTORS
330
47
102
}
330
47
100
AcDbScale
 70
     0
300
1:2
140
1.0
141
2.0
290
     0
  0
SCALE
  5
4A
102
{ACAD_REACTORS
330
47
102
}
330
47
100
AcDbScale
 70
     0
300
1:4
140
1.0
141
4.0
290
     0
  0
SCALE
  5
4B
102
{ACAD_REACTORS
330
47
102
}
330
47
100
AcDbScale
 70
     0
300
1:5
140
1.0
141
5.0
290
     0
  0
SCALE
  5
4C
102
{ACAD_REACTORS
330
47
102
}
330
47
100
AcDbScale
 70
     0
300
1:8
140
1.0
141
8.0
290
     0
  0
SCALE
  5
4D
102
{ACAD_REACTORS
330
47
102
}
330
47
100
AcDbScale
 70
     0
300
1:10
140
1.0
141
10.0
290
     0
  0
SCALE
  5
4E
102
{ACAD_REACTORS
330
47
102
}
330
47
100
AcDbScale
 70
     0
300
1:16
140
1.0
141
16.0
290
     0
  0
SCALE
  5
4F
102
{ACAD_REACTORS
330
47
102
}
330
47
100
AcDbScale
 70
     0
300
1:20
140
1.0
141
20.0
290
     0
  0
SCALE
  5
50
102
{ACAD_REACTORS
330
47
102
}
330
47
100
AcDbScale
 70
     0
300
1:30
140
1.0
141
30.0
290
     0
  0
SCALE
  5
51
102
{ACAD_REACTORS
330
47
102
}
330
47
100
AcDbScale
 70
     0
300
1:40
140
1.0
141
40.0
290
     0
  0
SCALE
  5
52
102
{ACAD_REACTORS
330
47
102
}
330
47
100
AcDbScale
 70
     0
300
1:50
140
1.0
141
50.0
290
     0
  0
SCALE
  5
53
102
{ACAD_REACTORS
330
47
102
}
330
47
100
AcDbScale
 70
     0
300
1:100
140
1.0
141
100.0
290
     0
  0
SCALE
  5
54
102
{ACAD_REACTORS
330
47
102
}
330
47
100
AcDbScale
 70
     0
300
2:1
140
2.0
141
1.0
290
     0
  0
SCALE
  5
55
102
{ACAD_REACTORS
330
47
102
}
330
47
100
AcDbScale
 70
     0
300
4:1
140
4.0
141
1.0
290
     0
  0
SCALE
  5
56
102
{ACAD_REACTORS
330
47
102
}
330
47
100
AcDbScale
 70
     0
300
8:1
140
8.0
141
1.0
290
     0
  0
SCALE
  5
57
102
{ACAD_REACTORS
330
47
102
}
330
47
100
AcDbScale
 70
     0
300
10:1
140
10.0
141
1.0
290
     0
  0
SCALE
  5
58
102
{ACAD_REACTORS
330
47
102
}
330
47
100
AcDbScale
 70
     0
300
100:1
140
100.0
141
1.0
290
     0
  0
SCALE
  5
59
102
{ACAD_REACTORS
330
47
102
}
330
47
100
AcDbScale
 70
     0
300
1/128" = 1'-0"
140
0.007812
141
12.0
290
     0
  0
SCALE
  5
5A
102
{ACAD_REACTORS
330
47
102
}
330
47
100
AcDbScale
 70
     0
300
1/64" = 1'-0"
140
0.015625
141
12.0
290
     0
  0
SCALE
  5
5B
102
{ACAD_REACTORS
330
47
102
}
330
47
100
AcDbScale
 70
     0
300
1/32" = 1'-0"
140
0.03125
141
12.0
290
     0
  0
SCALE
  5
5C
102
{ACAD_REACTORS
330
47
102
}
330
47
100
AcDbScale
 70
     0
300
1/16" = 1'-0"
140
0.0625
141
12.0
290
     0
  0
SCALE
  5
5D
102
{ACAD_REACTORS
330
47
102
}
330
47
100
AcDbScale
 70
     0
300
3/32" = 1'-0"
140
0.09375
141
12.0
290
     0
  0
SCALE
  5
5E
102
{ACAD_REACTORS
330
47
102
}
330
47
100
AcDbScale
 70
     0
300
1/8" = 1'-0"
140
0.125
141
12.0
290
     0
  0
SCALE
  5
5F
102
{ACAD_REACTORS
330
47
102
}
330
47
100
AcDbScale
 70
     0
300
3/16" = 1'-0"
140
0.1875
141
12.0
290
     0
  0
SCALE
  5
60
102
{ACAD_REACTORS
330
47
102
}
330
47
100
AcDbScale
 70
     0
300
1/4" = 1'-0"
140
0.25
141
12.0
290
     0
  0
SCALE
  5
61
102
{ACAD_REACTORS
330
47
102
}
330
47
100
AcDbScale
 70
     0
300
3/8" = 1'-0"
140
0.375
141
12.0
290
     0
  0
SCALE
  5
62
102
{ACAD_REACTORS
330
47
102
}
330
47
100
AcDbScale
 70
     0
300
1/2" = 1'-0"
140
0.5
141
12.0
290
     0
  0
SCALE
  5
63
102
{ACAD_REACTORS
330
47
102
}
330
47
100
AcDbScale
 70
     0
300
3/4" = 1'-0"
140
0.75
141
12.0
290
     0
  0
SCALE
  5
64
102
{ACAD_REACTORS
330
47
102
}
330
47
100
AcDbScale
 70
     0
300
1" = 1'-0"
140
1.0
141
12.0
290
     0
  0
SCALE
  5
65
102
{ACAD_REACTORS
330
47
102
}
330
47
100
AcDbScale
 70
     0
300
1-1/2" = 1'-0"
140
1.5
141
12.0
290
     0
  0
SCALE
  5
66
102
{ACAD_REACTORS
330
47
102
}
330
47
100
AcDbScale
 70
     0
300
3" = 1'-0"
140
3.0
141
12.0
290
     0
  0
SCALE
  5
67
102
{ACAD_REACTORS
330
47
102
}
330
47
100
AcDbScale
 70
     0
300
6" = 1'-0"
140
6.0
141
12.0
290
     0
  0
SCALE
  5
68
102
{ACAD_REACTORS
330
47
102
}
330
47
100
AcDbScale
 70
     0
300
1'-0" = 1'-0"
140
12.0
141
12.0
290
     0
  0
TABLESTYLE
  5
6A
102
{ACAD_REACTORS
330
69
102
}
102
{ACAD_XDICTIONARY
360
1AE
102
}
330
69
100
AcDbTableStyle
  3
Standard
 70
     0
 71
     0
 40
0.06
 41
0.06
280
     0
281
     0
  7
Standard
140
0.18
170
     2
 62
     0
 63
   257
283
     0
274
    -2
284
     1
 64
     0
275
    -2
285
     1
 65
     0
276
    -2
286
     1
 66
     0
277
    -2
287
     1
 67
     0
278
    -2
288
     1
 68
     0
279
    -2
289
     1
 69
     0
  7
Standard
140
0.25
170
     5
 62
     0
 63
   257
283
     0
274
    -2
284
     1
 64
     0
275
    -2
285
     1
 65
     0
276
    -2
286
     1
 66
     0
277
    -2
287
     1
 67
     0
278
    -2
288
     1
 68
     0
279
    -2
289
     1
 69
     0
  7
Standard
140
0.18
170
     5
 62
     0
 63
   257
283
     0
274
    -2
284
     1
 64
     0
275
    -2
285
     1
 65
     0
276
    -2
286
     1
 66
     0
277
    -2
287
     1
 67
     0
278
    -2
288
     1
 68
     0
279
    -2
289
     1
 69
     0
  0
VISUALSTYLE
  5
2F
102
{ACAD_REACTORS
330
2A
102
}
102
{ACAD_XDICTIONARY
360
180
102
}
330
2A
100
AcDbVisualStyle
  2
2dWireframe
 70
     4
 71
     0
 72
     2
 73
     0
 90
        0
 40
0.6
 41
30.0
 62
     5
 63
     7
421
 16777215
 74
     1
 91
        4
 64
     7
 65
   257
 75
     1
175
     1
 42
1.0
 92
        0
 66
   257
 43
1.0
 76
     1
 77
     6
 78
     2
 67
     7
 79
     5
170
     0
171
     0
290
     0
174
     0
 93
        1
 44
0.0
173
     0
291
     0
 45
0.0
1001
ACAD
1000
AcDbSavedByObjectVersion
1070
     0
  0
VISUALSTYLE
  5
32
102
{ACAD_REACTORS
330
2A
102
}
102
{ACAD_XDICTIONARY
360
186
102
}
330
2A
100
AcDbVisualStyle
  2
Basic
 70
     7
 71
     1
 72
     0
 73
     1
 90
        0
 40
0.6
 41
30.0
 62
     5
 63
     7
421
 16777215
 74
     0
 91
        4
 64
     7
 65
   257
 75
     1
175
     1
 42
1.0
 92
        8
 66
     7
 43
1.0
 76
     1
 77
     6
 78
     2
 67
     7
 79
     5
170
     0
171
     0
290
     0
174
     0
 93
        1
 44
0.0
173
     0
291
     1
 45
0.0
1001
ACAD
1000
AcDbSavedByObjectVersion
1070
     0
  0
VISUALSTYLE
  5
36
102
{ACAD_REACTORS
330
2A
102
}
102
{ACAD_XDICTIONARY
360
18E
102
}
330
2A
100
AcDbVisualStyle
  2
Brighten
 70
    12
 71
     2
 72
     2
 73
     0
 90
        0
 40
0.6
 41
30.0
 62
     5
 63
     7
421
 16777215
 74
     1
 91
        4
 64
     7
 65
   257
 75
     1
175
     1
 42
1.0
 92
        8
 66
     7
 43
1.0
 76
     1
 77
     6
 78
     2
 67
     7
 79
     5
170
     0
171
     0
290
     0
174
     0
 93
        1
 44
50.0
173
     0
291
     1
 45
0.0
1001
ACAD
1000
AcDbSavedByObjectVersion
1070
     0
  0
VISUALSTYLE
  5
3A
102
{ACAD_REACTORS
330
2A
102
}
102
{ACAD_XDICTIONARY
360
196
102
}
330
2A
100
AcDbVisualStyle
  2
ColorChange
 70
    16
 71
     2
 72
     2
 73
     3
 90
        0
 40
0.6
 41
30.0
 62
     5
 63
     8
421
  8421504
 74
     1
 91
        4
 64
     7
 65
   257
 75
     1
175
     1
 42
1.0
 92
        8
 66
     8
424
  8421504
 43
1.0
 76
     1
 77
     6
 78
     2
 67
     7
 79
     5
170
     0
171
     0
290
     0
174
     0
 93
        1
 44
0.0
173
     0
291
     1
 45
0.0
1001
ACAD
1000
AcDbSavedByObjectVersion
1070
     0
  0
VISUALSTYLE
  5
34
102
{ACAD_REACTORS
330
2A
102
}
102
{ACAD_XDICTIONARY
360
18A
102
}
330
2A
100
AcDbVisualStyle
  2
Conceptual
 70
     9
 71
     3
 72
     2
 73
     0
 90
        0
 40
0.6
 41
30.0
 62
     5
 63
     7
421
 16777215
 74
     2
 91
        2
 64
     7
 65
   257
 75
     1
175
     1
 42
179.0
 92
        8
 66
     7
 43
1.0
 76
     1
 77
     6
 78
     2
 67
     7
 79
     3
170
     0
171
     0
290
     0
174
     0
 93
        1
 44
0.0
173
     0
291
     0
 45
0.0
1001
ACAD
1000
AcDbSavedByObjectVersion
1070
     0
  0
VISUALSTYLE
  5
35
102
{ACAD_REACTORS
330
2A
102
}
102
{ACAD_XDICTIONARY
360
18C
102
}
330
2A
100
AcDbVisualStyle
  2
Dim
 70
    11
 71
     2
 72
     2
 73
     0
 90
        0
 40
0.6
 41
30.0
 62
     5
 63
     7
421
 16777215
 74
     1
 91
        4
 64
     7
 65
   257
 75
     1
175
     1
 42
1.0
 92
        8
 66
     7
 43
1.0
 76
     1
 77
     6
 78
     2
 67
     7
 79
     5
170
     0
171
     0
290
     0
174
     0
 93
        1
 44
-50.0
173
     0
291
     1
 45
0.0
1001
ACAD
1000
AcDbSavedByObjectVersion
1070
     0
  0
VISUALSTYLE
  5
3D
102
{ACAD_REACTORS
330
2A
102
}
102
{ACAD_XDICTIONARY
360
19C
102
}
330
2A
100
AcDbVisualStyle
  2
EdgeColorOff
 70
    22
 71
     2
 72
     2
 73
     0
 90
        0
 40
0.6
 41
30.0
 62
     5
 63
     7
421
 16777215
 74
     1
 91
        4
 64
     7
 65
   257
 75
     1
175
     1
 42
1.0
 92
        8
 66
     7
 43
1.0
 76
     1
 77
     6
 78
     2
 67
     7
 79
     5
170
     0
171
     0
290
     0
174
     0
 93
        1
 44
0.0
173
     0
291
     1
 45
0.0
1001
ACAD
1000
AcDbSavedByObjectVersion
1070
     0
  0
VISUALSTYLE
  5
39
102
{ACAD_REACTORS
330
2A
102
}
102
{ACAD_XDICTIONARY
360
194
102
}
330
2A
100
AcDbVisualStyle
  2
Facepattern
 70
    15
 71
     2
 72
     2
 73
     0
 90
        0
 40
0.6
 41
30.0
 62
     5
 63
     7
421
 16777215
 74
     1
 91
        4
 64
     7
 65
   257
 75
     1
175
     1
 42
1.0
 92
        8
 66
     7
 43
1.0
 76
     1
 77
     6
 78
     2
 67
     7
 79
     5
170
     0
171
     0
290
     0
174
     0
 93
        1
 44
0.0
173
     0
291
     1
 45
0.0
1001
ACAD
1000
AcDbSavedByObjectVersion
1070
     0
  0
VISUALSTYLE
  5
2B
102
{ACAD_REACTORS
330
2A
102
}
102
{ACAD_XDICTIONARY
360
178
102
}
330
2A
100
AcDbVisualStyle
  2
Flat
 70
     0
 71
     2
 72
     1
 73
     1
 90
        2
 40
0.6
 41
30.0
 62
     5
 63
     7
421
 16777215
 74
     0
 91
        0
 64
     7
 65
   257
 75
     1
175
     1
 42
1.0
 92
        8
 66
     7
 43
1.0
 76
     1
 77
     6
 78
     2
 67
     7
 79
     5
170
     0
171
     0
290
     0
174
     0
 93
       13
 44
0.0
173
     0
291
     1
 45
0.0
1001
ACAD
1000
AcDbSavedByObjectVersion
1070
     0
  0
VISUALSTYLE
  5
2C
102
{ACAD_REACTORS
330
2A
102
}
102
{ACAD_XDICTIONARY
360
17A
102
}
330
2A
100
AcDbVisualStyle
  2
FlatWithEdges
 70
     1
 71
     2
 72
     1
 73
     1
 90
        2
 40
0.6
 41
30.0
 62
     5
 63
     7
421
 16777215
 74
     1
 91
        0
 64
     7
 65
   257
 75
     1
175
     1
 42
1.0
 92
        0
 66
   257
 43
1.0
 76
     1
 77
     6
 78
     2
 67
     7
 79
     5
170
     0
171
     0
290
     0
174
     0
 93
       13
 44
0.0
173
     0
291
     1
 45
0.0
1001
ACAD
1000
AcDbSavedByObjectVersion
1070
     0
  0
VISUALSTYLE
  5
2D
102
{ACAD_REACTORS
330
2A
102
}
102
{ACAD_XDICTIONARY
360
17C
102
}
330
2A
100
AcDbVisualStyle
  2
Gouraud
 70
     2
 71
     2
 72
     2
 73
     1
 90
        2
 40
0.6
 41
30.0
 62
     5
 63
     7
421
 16777215
 74
     0
 91
        0
 64
     7
 65
   257
 75
     1
175
     1
 42
1.0
 92
        0
 66
     7
 43
1.0
 76
     1
 77
     6
 78
     2
 67
     7
 79
     5
170
     0
171
     0
290
     0
174
     0
 93
       13
 44
0.0
173
     0
291
     1
 45
0.0
1001
ACAD
1000
AcDbSavedByObjectVersion
1070
     0
  0
VISUALSTYLE
  5
2E
102
{ACAD_REACTORS
330
2A
102
}
102
{ACAD_XDICTIONARY
360
17E
102
}
330
2A
100
AcDbVisualStyle
  2
GouraudWithEdges
 70
     3
 71
     2
 72
     2
 73
     1
 90
        2
 40
0.6
 41
30.0
 62
     5
 63
     7
421
 16777215
 74
     1
 91
        0
 64
     7
 65
   257
 75
     1
175
     1
 42
1.0
 92
        0
 66
   257
 43
1.0
 76
     1
 77
     6
 78
     2
 67
     7
 79
     5
170
     0
171
     0
290
     0
174
     0
 93
       13
 44
0.0
173
     0
291
     1
 45
0.0
1001
ACAD
1000
AcDbSavedByObjectVersion
1070
     0
  0
VISUALSTYLE
  5
31
102
{ACAD_REACTORS
330
2A
102
}
102
{ACAD_XDICTIONARY
360
184
102
}
330
2A
100
AcDbVisualStyle
  2
Hidden
 70
     6
 71
     1
 72
     2
 73
     2
 90
        0
 40
0.6
 41
30.0
 62
     5
 63
     7
421
 16777215
 74
     2
 91
        2
 64
     7
 65
   257
 75
     2
175
     1
 42
40.0
 92
        0
 66
   257
 43
1.0
 76
     1
 77
     6
 78
     2
 67
     7
 79
     3
170
     0
171
     0
290
     0
174
     0
 93
        1
 44
0.0
173
     0
291
     0
 45
0.0
1001
ACAD
1000
AcDbSavedByObjectVersion
1070
     0
  0
VISUALSTYLE
  5
3B
102
{ACAD_REACTORS
330
2A
102
}
102
{ACAD_XDICTIONARY
360
198
102
}
330
2A
100
AcDbVisualStyle
  2
JitterOff
 70
    20
 71
     2
 72
     2
 73
     0
 90
        0
 40
0.6
 41
30.0
 62
     5
 63
     7
421
 16777215
 74
     1
 91
        4
 64
     7
 65
   257
 75
     1
175
     1
 42
1.0
 92
       10
 66
     7
 43
1.0
 76
     1
 77
     6
 78
     2
 67
     7
 79
     5
170
     0
171
     0
290
     0
174
     0
 93
        1
 44
0.0
173
     0
291
     1
 45
0.0
1001
ACAD
1000
AcDbSavedByObjectVersion
1070
     0
  0
VISUALSTYLE
  5
38
102
{ACAD_REACTORS
330
2A
102
}
102
{ACAD_XDICTIONARY
360
192
102
}
330
2A
100
AcDbVisualStyle
  2
Linepattern
 70
    14
 71
     2
 72
     2
 73
     0
 90
        0
 40
0.6
 41
30.0
 62
     5
 63
     7
421
 16777215
 74
     1
 91
        4
 64
     7
 65
   257
 75
     7
175
     7
 42
1.0
 92
        8
 66
     7
 43
1.0
 76
     1
 77
     6
 78
     2
 67
     7
 79
     5
170
     0
171
     0
290
     0
174
     0
 93
        1
 44
0.0
173
     0
291
     1
 45
0.0
1001
ACAD
1000
AcDbSavedByObjectVersion
1070
     0
  0
VISUALSTYLE
  5
3C
102
{ACAD_REACTORS
330
2A
102
}
102
{ACAD_XDICTIONARY
360
19A
102
}
330
2A
100
AcDbVisualStyle
  2
OverhangOff
 70
    21
 71
     2
 72
     2
 73
     0
 90
        0
 40
0.6
 41
30.0
 62
     5
 63
     7
421
 16777215
 74
     1
 91
        4
 64
     7
 65
   257
 75
     1
175
     1
 42
1.0
 92
        9
 66
     7
 43
1.0
 76
     1
 77
     6
 78
     2
 67
     7
 79
     5
170
     0
171
     0
290
     0
174
     0
 93
        1
 44
0.0
173
     0
291
     1
 45
0.0
1001
ACAD
1000
AcDbSavedByObjectVersion
1070
     0
  0
VISUALSTYLE
  5
33
102
{ACAD_REACTORS
330
2A
102
}
102
{ACAD_XDICTIONARY
360
188
102
}
330
2A
100
AcDbVisualStyle
  2
Realistic
 70
     8
 71
     2
 72
     3
 73
     0
 90
        2
 40
0.6
 41
30.0
 62
     5
 63
     7
421
 16777215
 74
     0
 91
        0
 64
     7
 65
   257
 75
     1
175
     1
 42
1.0
 92
        8
 66
   257
 43
1.0
 76
     1
 77
     6
 78
     2
 67
     7
 79
     3
170
     0
171
     0
290
     0
174
     0
 93
       13
 44
0.0
173
     0
291
     0
 45
0.0
1001
ACAD
1000
AcDbSavedByObjectVersion
1070
     0
  0
VISUALSTYLE
  5
42
102
{ACAD_REACTORS
330
2A
102
}
102
{ACAD_XDICTIONARY
360
1A6
102
}
330
2A
100
AcDbVisualStyle
  2
Shaded
 70
    27
 71
     2
 72
     2
 73
     1
 90
        2
 40
0.6
 41
30.0
 62
     5
 63
     7
421
 16777215
 74
     0
 91
        4
 64
     7
 65
   257
 75
     1
175
     1
 42
1.0
 92
        8
 66
   257
 43
1.0
 76
     1
 77
     6
 78
     2
 67
     8
425
  7895160
 79
     3
170
     0
171
     0
290
     0
174
     0
 93
        5
 44
0.0
173
     0
291
     0
 45
0.0
1001
ACAD
1000
AcDbSavedByObjectVersion
1070
     0
  0
VISUALSTYLE
  5
41
102
{ACAD_REACTORS
330
2A
102
}
102
{ACAD_XDICTIONARY
360
1A4
102
}
330
2A
100
AcDbVisualStyle
  2
Shaded with edges
 70
    26
 71
     2
 72
     2
 73
     1
 90
        2
 40
0.6
 41
30.0
 62
     5
 63
     7
421
 16777215
 74
     1
 91
       10
 64
     7
 65
   257
 75
     2
175
     1
 42
1.0
 92
        8
 66
   257
 43
1.0
 76
     1
 77
     6
 78
     2
 67
     7
 79
     3
170
     0
171
     0
290
     0
174
     0
 93
        5
 44
0.0
173
     0
291
     0
 45
0.0
1001
ACAD
1000
AcDbSavedByObjectVersion
1070
     0
  0
VISUALSTYLE
  5
3E
102
{ACAD_REACTORS
330
2A
102
}
102
{ACAD_XDICTIONARY
360
19E
102
}
330
2A
100
AcDbVisualStyle
  2
Shades of Gray
 70
    23
 71
     2
 72
     2
 73
     3
 90
        0
 40
0.6
 41
30.0
 62
     5
 63
     7
421
 16777215
 74
     2
 91
        2
 64
     7
 65
     7
 75
     1
175
     1
 42
40.0
 92
        8
 66
     7
 43
1.0
 76
     1
 77
     6
 78
     2
 67
     7
 79
     3
170
     0
171
     0
290
     0
174
     0
 93
        1
 44
0.0
173
     0
291
     0
 45
0.0
1001
ACAD
1000
AcDbSavedByObjectVersion
1070
     0
  0
VISUALSTYLE
  5
3F
102
{ACAD_REACTORS
330
2A
102
}
102
{ACAD_XDICTIONARY
360
1A0
102
}
330
2A
100
AcDbVisualStyle
  2
Sketchy
 70
    24
 71
     1
 72
     2
 73
     2
 90
        0
 40
0.6
 41
30.0
 62
     5
 63
     7
421
 16777215
 74
     2
 91
        2
 64
     7
 65
     7
 75
     1
175
     1
 42
40.0
 92
       11
 66
     7
 43
1.0
 76
     1
 77
     6
 78
     2
 67
     7
 79
     6
170
     0
171
     0
290
     0
174
     0
 93
        1
 44
0.0
173
     0
291
     0
 45
0.0
1001
ACAD
1000
AcDbSavedByObjectVersion
1070
     0
  0
VISUALSTYLE
  5
37
102
{ACAD_REACTORS
330
2A
102
}
102
{ACAD_XDICTIONARY
360
190
102
}
330
2A
100
AcDbVisualStyle
  2
Thicken
 70
    13
 71
     2
 72
     2
 73
     0
 90
        0
 40
0.6
 41
30.0
 62
     5
 63
     7
421
 16777215
 74
     1
 91
        4
 64
     7
 65
   257
 75
     1
175
     1
 42
1.0
 92
       12
 66
     7
 43
1.0
 76
     1
 77
     6
 78
     2
 67
     7
 79
     5
170
     0
171
     0
290
     0
174
     0
 93
        1
 44
0.0
173
     0
291
     1
 45
0.0
1001
ACAD
1000
AcDbSavedByObjectVersion
1070
     0
  0
VISUALSTYLE
  5
30
102
{ACAD_REACTORS
330
2A
102
}
102
{ACAD_XDICTIONARY
360
182
102
}
330
2A
100
AcDbVisualStyle
  2
Wireframe
 70
     5
 71
     0
 72
     2
 73
     0
 90
        0
 40
0.6
 41
30.0
 62
     5
 63
     7
421
 16777215
 74
     1
 91
        4
 64
     7
 65
   257
 75
     1
175
     1
 42
1.0
 92
        0
 66
   257
 43
1.0
 76
     1
 77
     6
 78
     2
 67
     7
 79
     3
170
     0
171
     0
290
     0
174
     0
 93
        1
 44
0.0
173
     0
291
     0
 45
0.0
1001
ACAD
1000
AcDbSavedByObjectVersion
1070
     0
  0
VISUALSTYLE
  5
40
102
{ACAD_REACTORS
330
2A
102
}
102
{ACAD_XDICTIONARY
360
1A2
102
}
330
2A
100
AcDbVisualStyle
  2
X-Ray
 70
    25
 71
     2
 72
     2
 73
     1
 90
        1
 40
0.5
 41
30.0
 62
     5
 63
     7
421
 16777215
 74
     1
 91
        0
 64
     7
 65
   257
 75
     1
175
     1
 42
1.0
 92
        8
 66
     7
 43
1.0
 76
     1
 77
     6
 78
     2
 67
     7
 79
     3
170
     0
171
     0
290
     0
174
     0
 93
       13
 44
0.0
173
     0
291
     0
 45
0.0
1001
ACAD
1000
AcDbSavedByObjectVersion
1070
     0
  0
DICTIONARYVAR
  5
175
102
{ACAD_REACTORS
330
174
102
}
330
174
100
DictionaryVariables
280
     0
  1
1:1
  0
DICTIONARYVAR
  5
1B6
102
{ACAD_REACTORS
330
174
102
}
330
174
100
DictionaryVariables
280
     0
  1
Standard
  0
DICTIONARYVAR
  5
1B5
102
{ACAD_REACTORS
330
174
102
}
330
174
100
DictionaryVariables
280
     0
  1
Standard
  0
DICTIONARYVAR
  5
176
102
{ACAD_REACTORS
330
174
102
}
330
174
100
DictionaryVariables
280
     0
  1
1
  0
DICTIONARYVAR
  5
177
102
{ACAD_REACTORS
330
174
102
}
330
174
100
DictionaryVariables
280
     0
  1
2
  0
DICTIONARY
  5
1AA
330
45
100
AcDbDictionary
280
     1
281
     1
  3
ACAD_XREC_ROUNDTRIP
360
1AB
  0
DICTIONARY
  5
1A8
330
44
100
AcDbDictionary
280
     1
281
     1
  3
ACAD_XREC_ROUNDTRIP
360
1A9
  0
DICTIONARY
  5
1AC
330
46
100
AcDbDictionary
280
     1
281
     1
  3
ACAD_XREC_ROUNDTRIP
360
1AD
  0
DICTIONARY
  5
1B2
330
6C
100
AcDbDictionary
280
     1
281
     1
  3
ACAD_XREC_ROUNDTRIP
360
1B3
  0
DICTIONARY
  5
1AE
330
6A
100
AcDbDictionary
280
     1
281
     1
  3
ACAD_ROUNDTRIP_2008_TABLESTYLE_CELLSTYLEMAP
360
1B0
  3
ACAD_XREC_ROUNDTRIP
360
1AF
  0
DICTIONARY
  5
180
330
2F
100
AcDbDictionary
280
     1
281
     1
  3
ACAD_XREC_ROUNDTRIP
360
181
  0
DICTIONARY
  5
186
330
32
100
AcDbDictionary
280
     1
281
     1
  3
ACAD_XREC_ROUNDTRIP
360
187
  0
DICTIONARY
  5
18E
330
36
100
AcDbDictionary
280
     1
281
     1
  3
ACAD_XREC_ROUNDTRIP
360
18F
  0
DICTIONARY
  5
196
330
3A
100
AcDbDictionary
280
     1
281
     1
  3
ACAD_XREC_ROUNDTRIP
360
197
  0
DICTIONARY
  5
18A
330
34
100
AcDbDictionary
280
     1
281
     1
  3
ACAD_XREC_ROUNDTRIP
360
18B
  0
DICTIONARY
  5
18C
330
35
100
AcDbDictionary
280
     1
281
     1
  3
ACAD_XREC_ROUNDTRIP
360
18D
  0
DICTIONARY
  5
19C
330
3D
100
AcDbDictionary
280
     1
281
     1
  3
ACAD_XREC_ROUNDTRIP
360
19D
  0
DICTIONARY
  5
194
330
39
100
AcDbDictionary
280
     1
281
     1
  3
ACAD_XREC_ROUNDTRIP
360
195
  0
DICTIONARY
  5
178
330
2B
100
AcDbDictionary
280
     1
281
     1
  3
ACAD_XREC_ROUNDTRIP
360
179
  0
DICTIONARY
  5
17A
330
2C
100
AcDbDictionary
280
     1
281
     1
  3
ACAD_XREC_ROUNDTRIP
360
17B
  0
DICTIONARY
  5
17C
330
2D
100
AcDbDictionary
280
     1
281
     1
  3
ACAD_XREC_ROUNDTRIP
360
17D
  0
DICTIONARY
  5
17E
330
2E
100
AcDbDictionary
280
     1
281
     1
  3
ACAD_XREC_ROUNDTRIP
360
17F
  0
DICTIONARY
  5
184
330
31
100
AcDbDictionary
280
     1
281
     1
  3
ACAD_XREC_ROUNDTRIP
360
185
  0
DICTIONARY
  5
198
330
3B
100
AcDbDictionary
280
     1
281
     1
  3
ACAD_XREC_ROUNDTRIP
360
199
  0
DICTIONARY
  5
192
330
38
100
AcDbDictionary
280
     1
281
     1
  3
ACAD_XREC_ROUNDTRIP
360
193
  0
DICTIONARY
  5
19A
330
3C
100
AcDbDictionary
280
     1
281
     1
  3
ACAD_XREC_ROUNDTRIP
360
19B
  0
DICTIONARY
  5
188
330
33
100
AcDbDictionary
280
     1
281
     1
  3
ACAD_XREC_ROUNDTRIP
360
189
  0
DICTIONARY
  5
1A6
330
42
100
AcDbDictionary
280
     1
281
     1
  3
ACAD_XREC_ROUNDTRIP
360
1A7
  0
DICTIONARY
  5
1A4
330
41
100
AcDbDictionary
280
     1
281
     1
  3
ACAD_XREC_ROUNDTRIP
360
1A5
  0
DICTIONARY
  5
19E
330
3E
100
AcDbDictionary
280
     1
281
     1
  3
ACAD_XREC_ROUNDTRIP
360
19F
  0
DICTIONARY
  5
1A0
330
3F
100
AcDbDictionary
280
     1
281
     1
  3
ACAD_XREC_ROUNDTRIP
360
1A1
  0
DICTIONARY
  5
190
330
37
100
AcDbDictionary
280
     1
281
     1
  3
ACAD_XREC_ROUNDTRIP
360
191
  0
DICTIONARY
  5
182
330
30
100
AcDbDictionary
280
     1
281
     1
  3
ACAD_XREC_ROUNDTRIP
360
183
  0
DICTIONARY
  5
1A2
330
40
100
AcDbDictionary
280
     1
281
     1
  3
ACAD_XREC_ROUNDTRIP
360
1A3
  0
XRECORD
  5
1AB
102
{ACAD_REACTORS
330
1AA
102
}
330
1AA
100
AcDbXrecord
280
     1
102
MATERIAL
148
0.0
149
0.0
149
0.0
 93
        0
 94
      127
282
     0
 72
     1
 77
     1
171
     1
175
     1
179
     1
273
     0
  0
XRECORD
  5
1A9
102
{ACAD_REACTORS
330
1A8
102
}
330
1A8
100
AcDbXrecord
280
     1
102
MATERIAL
148
0.0
149
0.0
149
0.0
 93
        0
 94
      127
282
     0
 72
     1
 77
     1
171
     1
175
     1
179
     1
273
     0
  0
XRECORD
  5
1AD
102
{ACAD_REACTORS
330
1AC
102
}
330
1AC
100
AcDbXrecord
280
     1
102
MATERIAL
148
0.0
149
0.0
149
0.0
 93
        0
 94
      127
282
     0
 72
     1
 77
     1
171
     1
175
     1
179
     1
273
     0
  0
XRECORD
  5
1B3
102
{ACAD_REACTORS
330
1B2
102
}
330
1B2
100
AcDbXrecord
280
     1
102
ACAD_ROUNDTRIP_2010_MLEADER_STYLE
  0
CELLSTYLEMAP
  5
1B0
102
{ACAD_REACTORS
330
1AE
102
}
330
1AE
100
AcDbCellStyleMap
 90
        3
300
CELLSTYLE
  1
TABLEFORMAT_BEGIN
 90
        5
170
     1
 91
        0
 92
    32768
 62
   257
 93
        1
300
CONTENTFORMAT
  1
CONTENTFORMAT_BEGIN
 90
        0
 91
        0
 92
        4
 93
        0
300

 40
0.0
140
1.0
 94
        5
 62
     0
340
11
144
0.25
309
CONTENTFORMAT_END
171
     1
301
MARGIN
  1
CELLMARGIN_BEGIN
 40
0.06
 40
0.06
 40
0.06
 40
0.06
 40
0.06
 40
0.06
309
CELLMARGIN_END
 94
        6
 95
        1
302
GRIDFORMAT
  1
GRIDFORMAT_BEGIN
 90
        0
 91
        1
 62
     0
 92
       -2
340
14
 93
        0
 40
0.045
309
GRIDFORMAT_END
 95
        2
302
GRIDFORMAT
  1
GRIDFORMAT_BEGIN
 90
        0
 91
        1
 62
     0
 92
       -2
340
14
 93
        0
 40
0.045
309
GRIDFORMAT_END
 95
        4
302
GRIDFORMAT
  1
GRIDFORMAT_BEGIN
 90
        0
 91
        1
 62
     0
 92
       -2
340
14
 93
        0
 40
0.045
309
GRIDFORMAT_END
 95
        8
302
GRIDFORMAT
  1
GRIDFORMAT_BEGIN
 90
        0
 91
        1
 62
     0
 92
       -2
340
14
 93
        0
 40
0.045
309
GRIDFORMAT_END
 95
       16
302
GRIDFORMAT
  1
GRIDFORMAT_BEGIN
 90
        0
 91
        1
 62
     0
 92
       -2
340
14
 93
        0
 40
0.045
309
GRIDFORMAT_END
 95
       32
302
GRIDFORMAT
  1
GRIDFORMAT_BEGIN
 90
        0
 91
        1
 62
     0
 92
       -2
340
14
 93
        0
 40
0.045
309
GRIDFORMAT_END
309
TABLEFORMAT_END
  1
CELLSTYLE_BEGIN
 90
        1
 91
        1
300
_TITLE
309
CELLSTYLE_END
300
CELLSTYLE
  1
TABLEFORMAT_BEGIN
 90
        5
170
     1
 91
        0
 92
        0
 62
   257
 93
        1
300
CONTENTFORMAT
  1
CONTENTFORMAT_BEGIN
 90
        0
 91
        0
 92
        4
 93
        0
300

 40
0.0
140
1.0
 94
        5
 62
     0
340
11
144
0.18
309
CONTENTFORMAT_END
171
     1
301
MARGIN
  1
CELLMARGIN_BEGIN
 40
0.06
 40
0.06
 40
0.06
 40
0.06
 40
0.06
 40
0.06
309
CELLMARGIN_END
 94
        6
 95
        1
302
GRIDFORMAT
  1
GRIDFORMAT_BEGIN
 90
        0
 91
        1
 62
     0
 92
       -2
340
14
 93
        0
 40
0.045
309
GRIDFORMAT_END
 95
        2
302
GRIDFORMAT
  1
GRIDFORMAT_BEGIN
 90
        0
 91
        1
 62
     0
 92
       -2
340
14
 93
        0
 40
0.045
309
GRIDFORMAT_END
 95
        4
302
GRIDFORMAT
  1
GRIDFORMAT_BEGIN
 90
        0
 91
        1
 62
     0
 92
       -2
340
14
 93
        0
 40
0.045
309
GRIDFORMAT_END
 95
        8
302
GRIDFORMAT
  1
GRIDFORMAT_BEGIN
 90
        0
 91
        1
 62
     0
 92
       -2
340
14
 93
        0
 40
0.045
309
GRIDFORMAT_END
 95
       16
302
GRIDFORMAT
  1
GRIDFORMAT_BEGIN
 90
        0
 91
        1
 62
     0
 92
       -2
340
14
 93
        0
 40
0.045
309
GRIDFORMAT_END
 95
       32
302
GRIDFORMAT
  1
GRIDFORMAT_BEGIN
 90
        0
 91
        1
 62
     0
 92
       -2
340
14
 93
        0
 40
0.045
309
GRIDFORMAT_END
309
TABLEFORMAT_END
  1
CELLSTYLE_BEGIN
 90
        2
 91
        1
300
_HEADER
309
CELLSTYLE_END
300
CELLSTYLE
  1
TABLEFORMAT_BEGIN
 90
        5
170
     1
 91
        0
 92
        0
 62
   257
 93
        1
300
CONTENTFORMAT
  1
CONTENTFORMAT_BEGIN
 90
        0
 91
        0
 92
        4
 93
        0
300

 40
0.0
140
1.0
 94
        2
 62
     0
340
11
144
0.18
309
CONTENTFORMAT_END
171
     1
301
MARGIN
  1
CELLMARGIN_BEGIN
 40
0.06
 40
0.06
 40
0.06
 40
0.06
 40
0.06
 40
0.06
309
CELLMARGIN_END
 94
        6
 95
        1
302
GRIDFORMAT
  1
GRIDFORMAT_BEGIN
 90
        0
 91
        1
 62
     0
 92
       -2
340
14
 93
        0
 40
0.045
309
GRIDFORMAT_END
 95
        2
302
GRIDFORMAT
  1
GRIDFORMAT_BEGIN
 90
        0
 91
        1
 62
     0
 92
       -2
340
14
 93
        0
 40
0.045
309
GRIDFORMAT_END
 95
        4
302
GRIDFORMAT
  1
GRIDFORMAT_BEGIN
 90
        0
 91
        1
 62
     0
 92
       -2
340
14
 93
        0
 40
0.045
309
GRIDFORMAT_END
 95
        8
302
GRIDFORMAT
  1
GRIDFORMAT_BEGIN
 90
        0
 91
        1
 62
     0
 92
       -2
340
14
 93
        0
 40
0.045
309
GRIDFORMAT_END
 95
       16
302
GRIDFORMAT
  1
GRIDFORMAT_BEGIN
 90
        0
 91
        1
 62
     0
 92
       -2
340
14
 93
        0
 40
0.045
309
GRIDFORMAT_END
 95
       32
302
GRIDFORMAT
  1
GRIDFORMAT_BEGIN
 90
        0
 91
        1
 62
     0
 92
       -2
340
14
 93
        0
 40
0.045
309
GRIDFORMAT_END
309
TABLEFORMAT_END
  1
CELLSTYLE_BEGIN
 90
        3
 91
        2
300
_DATA
309
CELLSTYLE_END
  0
XRECORD
  5
1AF
102
{ACAD_REACTORS
330
1AE
102
}
330
1AE
100
AcDbXrecord
280
     1
102
ACAD_ROUNDTRIP_PRE2007_TABLESTYLE
 90
        4
 91
        0
  1

 92
        4
 93
        0
  2

 94
        4
 95
        0
  3

  0
XRECORD
  5
181
102
{ACAD_REACTORS
330
180
102
}
330
180
100
AcDbXrecord
280
     1
102
RTVSPropertyOp0
 70
     1
102
RTVSPropertyOp1
 70
     1
102
RTVSPropertyOp2
 70
     1
102
RTVSPropertyOp3
 70
     1
102
RTVSPropertyOp4
 70
     1
102
RTVSPropertyOp5
 70
     1
102
RTVSPropertyOp6
 70
     1
102
RTVSPropertyOp7
 70
     1
102
RTVSPropertyOp8
 70
     1
102
RTVSPropertyOp9
 70
     1
102
RTVSPropertyOp10
 70
     1
102
RTVSPropertyOp11
 70
     1
102
RTVSPropertyOp12
 70
     1
102
RTVSPropertyOp13
 70
     1
102
RTVSPropertyOp14
 70
     1
102
RTVSPropertyOp15
 70
     1
102
RTVSPropertyOp16
 70
     1
102
RTVSPropertyOp17
 70
     1
102
RTVSPropertyOp18
 70
     1
102
RTVSPropertyOp19
 70
     1
102
RTVSPropertyOp20
 70
     1
102
RTVSPropertyOp21
 70
     1
102
RTVSPropertyOp22
 70
     1
102
RTVSPropertyOp23
 70
     1
102
RTVSPropertyOp24
 70
     1
102
RTVSPropertyOp25
 70
     1
102
RTVSPropertyOp26
 70
     1
102
RTVSPropertyOp27
 70
     1
102
RTVSPropertyOp28
 70
     1
102
RTVSPropertyOp29
 70
     1
102
RTVSPropertyOp30
 70
     1
102
RTVSPropertyOp31
 70
     1
102
RTVSPropertyOp32
 70
     1
102
RTVSPropertyOp33
 70
     1
102
RTVSPropertyOp34
 70
     1
102
RTVSPropertyOp35
 70
     1
102
RTVSPropertyOp36
 70
     1
102
RTVSPropertyOp37
 70
     1
102
RTVSPropertyOp38
 70
     1
102
RTVSPropertyOp39
 70
     1
102
RTVSPropertyOp40
 70
     1
102
RTVSPropertyOp41
 70
     1
102
RTVSPropertyOp42
 70
     1
102
RTVSPropertyOp43
 70
     1
102
RTVSPropertyOp44
 70
     1
102
RTVSPropertyOp45
 70
     1
102
RTVSPropertyOp46
 70
     1
102
RTVSPropertyOp47
 70
     1
102
RTVSPropertyOp48
 70
     1
102
RTVSPropertyOp49
 70
     1
102
RTVSPropertyOp50
 70
     1
102
RTVSPropertyOp51
 70
     0
102
RTVSPropertyOp52
 70
     0
102
RTVSPropertyOp53
 70
     1
102
RTVSPropertyOp54
 70
     1
102
RTVSPropertyOp55
 70
     1
102
RTVSPropertyOp56
 70
     1
102
RTVSPropertyOp57
 70
     1
102
RTVSPost2010Prop28
280
     1
102
RTVSPost2010PropOp28
 70
     1
102
RTVSPost2010Prop29
280
     1
102
RTVSPost2010PropOp29
 70
     1
102
RTVSPost2010Prop30
280
     0
102
RTVSPost2010PropOp30
 70
     1
102
RTVSPost2010Prop31
280
     0
102
RTVSPost2010PropOp31
 70
     1
102
RTVSPost2010Prop32
280
     0
102
RTVSPost2010PropOp32
 70
     1
102
RTVSPost2010Prop33
280
     0
102
RTVSPost2010PropOp33
 70
     1
102
RTVSPost2010Prop34
280
     0
102
RTVSPost2010PropOp34
 70
     1
102
RTVSPost2010Prop35
280
     0
102
RTVSPost2010PropOp35
 70
     1
102
RTVSPost2010Prop36
280
     0
102
RTVSPost2010PropOp36
 70
     1
102
RTVSPost2010Prop37
 90
       50
102
RTVSPost2010PropOp37
 70
     1
102
RTVSPost2010Prop38
140
0.0
102
RTVSPost2010PropOp38
 70
     1
102
RTVSPost2010Prop39
140
1.0
102
RTVSPost2010PropOp39
 70
     1
102
RTVSPost2010Prop40
 90
        0
102
RTVSPost2010PropOp40
 70
     1
102
RTVSPost2010Prop41ColorIndex
 90
       18
102
RTVSPost2010Prop41ColorRGB
 90
        0
102
RTVSPost2010PropOp41
 70
     1
102
RTVSPost2010Prop42
 90
       50
102
RTVSPost2010PropOp42
 70
     1
102
RTVSPost2010Prop43
 90
        3
102
RTVSPost2010PropOp43
 70
     1
102
RTVSPost2010Prop44ColorIndex
 90
        5
102
RTVSPost2010Prop44ColorRGB
 90
      255
102
RTVSPost2010PropOp44
 70
     1
102
RTVSPost2010Prop45
280
     0
102
RTVSPost2010PropOp45
 70
     1
102
RTVSPost2010Prop46
 90
       50
102
RTVSPost2010PropOp46
 70
     1
102
RTVSPost2010Prop47
 90
       50
102
RTVSPost2010PropOp47
 70
     1
102
RTVSPost2010Prop48
 90
       50
102
RTVSPost2010PropOp48
 70
     1
102
RTVSPost2010Prop49
280
     0
102
RTVSPost2010PropOp49
 70
     1
102
RTVSPost2010Prop50
 90
       50
102
RTVSPost2010PropOp50
 70
     1
102
RTVSPost2010Prop51ColorIndex
 90
      256
102
RTVSPost2010Prop51ColorRGB
 90
-16777216
102
RTVSPost2010PropOp51
 70
     0
102
RTVSPost2010Prop52
140
1.0
102
RTVSPost2010PropOp52
 70
     0
102
RTVSPost2010Prop53
 90
        2
102
RTVSPost2010PropOp53
 70
     1
102
RTVSPost2010Prop54
  1
strokes_ogs.tif
102
RTVSPost2010PropOp54
 70
     1
102
RTVSPost2010Prop55
280
     0
102
RTVSPost2010PropOp55
 70
     1
102
RTVSPost2010Prop56
140
1.0
102
RTVSPost2010PropOp56
 70
     1
102
RTVSPost2010Prop57
140
1.0
102
RTVSPost2010PropOp57
 70
     1
  0
XRECORD
  5
187
102
{ACAD_REACTORS
330
186
102
}
330
186
100
AcDbXrecord
280
     1
102
RTVSPropertyOp0
 70
     1
102
RTVSPropertyOp1
 70
     1
102
RTVSPropertyOp2
 70
     1
102
RTVSPropertyOp3
 70
     1
102
RTVSPropertyOp4
 70
     1
102
RTVSPropertyOp5
 70
     1
102
RTVSPropertyOp6
 70
     1
102
RTVSPropertyOp7
 70
     1
102
RTVSPropertyOp8
 70
     1
102
RTVSPropertyOp9
 70
     1
102
RTVSPropertyOp10
 70
     1
102
RTVSPropertyOp11
 70
     1
102
RTVSPropertyOp12
 70
     1
102
RTVSPropertyOp13
 70
     1
102
RTVSPropertyOp14
 70
     1
102
RTVSPropertyOp15
 70
     1
102
RTVSPropertyOp16
 70
     1
102
RTVSPropertyOp17
 70
     1
102
RTVSPropertyOp18
 70
     1
102
RTVSPropertyOp19
 70
     1
102
RTVSPropertyOp20
 70
     1
102
RTVSPropertyOp21
 70
     1
102
RTVSPropertyOp22
 70
     1
102
RTVSPropertyOp23
 70
     1
102
RTVSPropertyOp24
 70
     1
102
RTVSPropertyOp25
 70
     1
102
RTVSPropertyOp26
 70
     1
102
RTVSPropertyOp27
 70
     1
102
RTVSPropertyOp28
 70
     1
102
RTVSPropertyOp29
 70
     1
102
RTVSPropertyOp30
 70
     1
102
RTVSPropertyOp31
 70
     1
102
RTVSPropertyOp32
 70
     1
102
RTVSPropertyOp33
 70
     1
102
RTVSPropertyOp34
 70
     1
102
RTVSPropertyOp35
 70
     1
102
RTVSPropertyOp36
 70
     1
102
RTVSPropertyOp37
 70
     1
102
RTVSPropertyOp38
 70
     1
102
RTVSPropertyOp39
 70
     1
102
RTVSPropertyOp40
 70
     1
102
RTVSPropertyOp41
 70
     1
102
RTVSPropertyOp42
 70
     1
102
RTVSPropertyOp43
 70
     1
102
RTVSPropertyOp44
 70
     1
102
RTVSPropertyOp45
 70
     1
102
RTVSPropertyOp46
 70
     1
102
RTVSPropertyOp47
 70
     1
102
RTVSPropertyOp48
 70
     1
102
RTVSPropertyOp49
 70
     1
102
RTVSPropertyOp50
 70
     1
102
RTVSPropertyOp51
 70
     0
102
RTVSPropertyOp52
 70
     0
102
RTVSPropertyOp53
 70
     1
102
RTVSPropertyOp54
 70
     1
102
RTVSPropertyOp55
 70
     1
102
RTVSPropertyOp56
 70
     1
102
RTVSPropertyOp57
 70
     1
102
RTVSPost2010Prop28
280
     0
102
RTVSPost2010PropOp28
 70
     1
102
RTVSPost2010Prop29
280
     1
102
RTVSPost2010PropOp29
 70
     1
102
RTVSPost2010Prop30
280
     1
102
RTVSPost2010PropOp30
 70
     1
102
RTVSPost2010Prop31
280
     0
102
RTVSPost2010PropOp31
 70
     1
102
RTVSPost2010Prop32
280
     0
102
RTVSPost2010PropOp32
 70
     1
102
RTVSPost2010Prop33
280
     0
102
RTVSPost2010PropOp33
 70
     1
102
RTVSPost2010Prop34
280
     0
102
RTVSPost2010PropOp34
 70
     1
102
RTVSPost2010Prop35
280
     0
102
RTVSPost2010PropOp35
 70
     1
102
RTVSPost2010Prop36
280
     0
102
RTVSPost2010PropOp36
 70
     1
102
RTVSPost2010Prop37
 90
       50
102
RTVSPost2010PropOp37
 70
     1
102
RTVSPost2010Prop38
140
0.0
102
RTVSPost2010PropOp38
 70
     1
102
RTVSPost2010Prop39
140
1.0
102
RTVSPost2010PropOp39
 70
     1
102
RTVSPost2010Prop40
 90
        0
102
RTVSPost2010PropOp40
 70
     1
102
RTVSPost2010Prop41ColorIndex
 90
       18
102
RTVSPost2010Prop41ColorRGB
 90
        0
102
RTVSPost2010PropOp41
 70
     1
102
RTVSPost2010Prop42
 90
       50
102
RTVSPost2010PropOp42
 70
     1
102
RTVSPost2010Prop43
 90
        3
102
RTVSPost2010PropOp43
 70
     1
102
RTVSPost2010Prop44ColorIndex
 90
        5
102
RTVSPost2010Prop44ColorRGB
 90
      255
102
RTVSPost2010PropOp44
 70
     1
102
RTVSPost2010Prop45
280
     0
102
RTVSPost2010PropOp45
 70
     1
102
RTVSPost2010Prop46
 90
       50
102
RTVSPost2010PropOp46
 70
     1
102
RTVSPost2010Prop47
 90
       50
102
RTVSPost2010PropOp47
 70
     1
102
RTVSPost2010Prop48
 90
       50
102
RTVSPost2010PropOp48
 70
     1
102
RTVSPost2010Prop49
280
     0
102
RTVSPost2010PropOp49
 70
     1
102
RTVSPost2010Prop50
 90
       50
102
RTVSPost2010PropOp50
 70
     1
102
RTVSPost2010Prop51ColorIndex
 90
      256
102
RTVSPost2010Prop51ColorRGB
 90
-16777216
102
RTVSPost2010PropOp51
 70
     0
102
RTVSPost2010Prop52
140
1.0
102
RTVSPost2010PropOp52
 70
     0
102
RTVSPost2010Prop53
 90
        2
102
RTVSPost2010PropOp53
 70
     1
102
RTVSPost2010Prop54
  1
strokes_ogs.tif
102
RTVSPost2010PropOp54
 70
     1
102
RTVSPost2010Prop55
280
     0
102
RTVSPost2010PropOp55
 70
     1
102
RTVSPost2010Prop56
140
1.0
102
RTVSPost2010PropOp56
 70
     1
102
RTVSPost2010Prop57
140
1.0
102
RTVSPost2010PropOp57
 70
     1
  0
XRECORD
  5
18F
102
{ACAD_REACTORS
330
18E
102
}
330
18E
100
AcDbXrecord
280
     1
102
RTVSPropertyOp0
 70
     1
102
RTVSPropertyOp1
 70
     1
102
RTVSPropertyOp2
 70
     1
102
RTVSPropertyOp3
 70
     1
102
RTVSPropertyOp4
 70
     1
102
RTVSPropertyOp5
 70
     1
102
RTVSPropertyOp6
 70
     1
102
RTVSPropertyOp7
 70
     1
102
RTVSPropertyOp8
 70
     1
102
RTVSPropertyOp9
 70
     1
102
RTVSPropertyOp10
 70
     1
102
RTVSPropertyOp11
 70
     1
102
RTVSPropertyOp12
 70
     1
102
RTVSPropertyOp13
 70
     1
102
RTVSPropertyOp14
 70
     1
102
RTVSPropertyOp15
 70
     1
102
RTVSPropertyOp16
 70
     1
102
RTVSPropertyOp17
 70
     1
102
RTVSPropertyOp18
 70
     1
102
RTVSPropertyOp19
 70
     1
102
RTVSPropertyOp20
 70
     1
102
RTVSPropertyOp21
 70
     1
102
RTVSPropertyOp22
 70
     1
102
RTVSPropertyOp23
 70
     1
102
RTVSPropertyOp24
 70
     1
102
RTVSPropertyOp25
 70
     1
102
RTVSPropertyOp26
 70
     1
102
RTVSPropertyOp27
 70
     1
102
RTVSPropertyOp28
 70
     1
102
RTVSPropertyOp29
 70
     1
102
RTVSPropertyOp30
 70
     1
102
RTVSPropertyOp31
 70
     1
102
RTVSPropertyOp32
 70
     1
102
RTVSPropertyOp33
 70
     1
102
RTVSPropertyOp34
 70
     1
102
RTVSPropertyOp35
 70
     1
102
RTVSPropertyOp36
 70
     1
102
RTVSPropertyOp37
 70
     1
102
RTVSPropertyOp38
 70
     1
102
RTVSPropertyOp39
 70
     1
102
RTVSPropertyOp40
 70
     1
102
RTVSPropertyOp41
 70
     1
102
RTVSPropertyOp42
 70
     1
102
RTVSPropertyOp43
 70
     1
102
RTVSPropertyOp44
 70
     1
102
RTVSPropertyOp45
 70
     1
102
RTVSPropertyOp46
 70
     1
102
RTVSPropertyOp47
 70
     1
102
RTVSPropertyOp48
 70
     1
102
RTVSPropertyOp49
 70
     1
102
RTVSPropertyOp50
 70
     1
102
RTVSPropertyOp51
 70
     0
102
RTVSPropertyOp52
 70
     0
102
RTVSPropertyOp53
 70
     1
102
RTVSPropertyOp54
 70
     1
102
RTVSPropertyOp55
 70
     1
102
RTVSPropertyOp56
 70
     1
102
RTVSPropertyOp57
 70
     1
102
RTVSPost2010Prop28
280
     0
102
RTVSPost2010PropOp28
 70
     1
102
RTVSPost2010Prop29
280
     1
102
RTVSPost2010PropOp29
 70
     1
102
RTVSPost2010Prop30
280
     1
102
RTVSPost2010PropOp30
 70
     1
102
RTVSPost2010Prop31
280
     0
102
RTVSPost2010PropOp31
 70
     1
102
RTVSPost2010Prop32
280
     0
102
RTVSPost2010PropOp32
 70
     1
102
RTVSPost2010Prop33
280
     0
102
RTVSPost2010PropOp33
 70
     1
102
RTVSPost2010Prop34
280
     0
102
RTVSPost2010PropOp34
 70
     1
102
RTVSPost2010Prop35
280
     0
102
RTVSPost2010PropOp35
 70
     1
102
RTVSPost2010Prop36
280
     0
102
RTVSPost2010PropOp36
 70
     1
102
RTVSPost2010Prop37
 90
       50
102
RTVSPost2010PropOp37
 70
     1
102
RTVSPost2010Prop38
140
0.0
102
RTVSPost2010PropOp38
 70
     1
102
RTVSPost2010Prop39
140
1.0
102
RTVSPost2010PropOp39
 70
     1
102
RTVSPost2010Prop40
 90
        0
102
RTVSPost2010PropOp40
 70
     1
102
RTVSPost2010Prop41ColorIndex
 90
       18
102
RTVSPost2010Prop41ColorRGB
 90
        0
102
RTVSPost2010PropOp41
 70
     1
102
RTVSPost2010Prop42
 90
       50
102
RTVSPost2010PropOp42
 70
     1
102
RTVSPost2010Prop43
 90
        3
102
RTVSPost2010PropOp43
 70
     1
102
RTVSPost2010Prop44ColorIndex
 90
        5
102
RTVSPost2010Prop44ColorRGB
 90
      255
102
RTVSPost2010PropOp44
 70
     1
102
RTVSPost2010Prop45
280
     0
102
RTVSPost2010PropOp45
 70
     1
102
RTVSPost2010Prop46
 90
       50
102
RTVSPost2010PropOp46
 70
     1
102
RTVSPost2010Prop47
 90
       50
102
RTVSPost2010PropOp47
 70
     1
102
RTVSPost2010Prop48
 90
       50
102
RTVSPost2010PropOp48
 70
     1
102
RTVSPost2010Prop49
280
     0
102
RTVSPost2010PropOp49
 70
     1
102
RTVSPost2010Prop50
 90
       50
102
RTVSPost2010PropOp50
 70
     1
102
RTVSPost2010Prop51ColorIndex
 90
      256
102
RTVSPost2010Prop51ColorRGB
 90
-16777216
102
RTVSPost2010PropOp51
 70
     0
102
RTVSPost2010Prop52
140
1.0
102
RTVSPost2010PropOp52
 70
     0
102
RTVSPost2010Prop53
 90
        2
102
RTVSPost2010PropOp53
 70
     1
102
RTVSPost2010Prop54
  1
strokes_ogs.tif
102
RTVSPost2010PropOp54
 70
     1
102
RTVSPost2010Prop55
280
     0
102
RTVSPost2010PropOp55
 70
     1
102
RTVSPost2010Prop56
140
1.0
102
RTVSPost2010PropOp56
 70
     1
102
RTVSPost2010Prop57
140
1.0
102
RTVSPost2010PropOp57
 70
     1
  0
XRECORD
  5
197
102
{ACAD_REACTORS
330
196
102
}
330
196
100
AcDbXrecord
280
     1
102
RTVSPropertyOp0
 70
     1
102
RTVSPropertyOp1
 70
     1
102
RTVSPropertyOp2
 70
     1
102
RTVSPropertyOp3
 70
     1
102
RTVSPropertyOp4
 70
     1
102
RTVSPropertyOp5
 70
     1
102
RTVSPropertyOp6
 70
     1
102
RTVSPropertyOp7
 70
     1
102
RTVSPropertyOp8
 70
     1
102
RTVSPropertyOp9
 70
     1
102
RTVSPropertyOp10
 70
     1
102
RTVSPropertyOp11
 70
     1
102
RTVSPropertyOp12
 70
     1
102
RTVSPropertyOp13
 70
     1
102
RTVSPropertyOp14
 70
     1
102
RTVSPropertyOp15
 70
     1
102
RTVSPropertyOp16
 70
     1
102
RTVSPropertyOp17
 70
     1
102
RTVSPropertyOp18
 70
     1
102
RTVSPropertyOp19
 70
     1
102
RTVSPropertyOp20
 70
     1
102
RTVSPropertyOp21
 70
     1
102
RTVSPropertyOp22
 70
     1
102
RTVSPropertyOp23
 70
     1
102
RTVSPropertyOp24
 70
     1
102
RTVSPropertyOp25
 70
     1
102
RTVSPropertyOp26
 70
     1
102
RTVSPropertyOp27
 70
     1
102
RTVSPropertyOp28
 70
     1
102
RTVSPropertyOp29
 70
     1
102
RTVSPropertyOp30
 70
     1
102
RTVSPropertyOp31
 70
     1
102
RTVSPropertyOp32
 70
     1
102
RTVSPropertyOp33
 70
     1
102
RTVSPropertyOp34
 70
     1
102
RTVSPropertyOp35
 70
     1
102
RTVSPropertyOp36
 70
     1
102
RTVSPropertyOp37
 70
     1
102
RTVSPropertyOp38
 70
     1
102
RTVSPropertyOp39
 70
     1
102
RTVSPropertyOp40
 70
     1
102
RTVSPropertyOp41
 70
     1
102
RTVSPropertyOp42
 70
     1
102
RTVSPropertyOp43
 70
     1
102
RTVSPropertyOp44
 70
     1
102
RTVSPropertyOp45
 70
     1
102
RTVSPropertyOp46
 70
     1
102
RTVSPropertyOp47
 70
     1
102
RTVSPropertyOp48
 70
     1
102
RTVSPropertyOp49
 70
     1
102
RTVSPropertyOp50
 70
     1
102
RTVSPropertyOp51
 70
     0
102
RTVSPropertyOp52
 70
     0
102
RTVSPropertyOp53
 70
     1
102
RTVSPropertyOp54
 70
     1
102
RTVSPropertyOp55
 70
     1
102
RTVSPropertyOp56
 70
     1
102
RTVSPropertyOp57
 70
     1
102
RTVSPost2010Prop28
280
     0
102
RTVSPost2010PropOp28
 70
     1
102
RTVSPost2010Prop29
280
     1
102
RTVSPost2010PropOp29
 70
     1
102
RTVSPost2010Prop30
280
     1
102
RTVSPost2010PropOp30
 70
     1
102
RTVSPost2010Prop31
280
     0
102
RTVSPost2010PropOp31
 70
     1
102
RTVSPost2010Prop32
280
     0
102
RTVSPost2010PropOp32
 70
     1
102
RTVSPost2010Prop33
280
     0
102
RTVSPost2010PropOp33
 70
     1
102
RTVSPost2010Prop34
280
     0
102
RTVSPost2010PropOp34
 70
     1
102
RTVSPost2010Prop35
280
     0
102
RTVSPost2010PropOp35
 70
     1
102
RTVSPost2010Prop36
280
     0
102
RTVSPost2010PropOp36
 70
     1
102
RTVSPost2010Prop37
 90
       50
102
RTVSPost2010PropOp37
 70
     1
102
RTVSPost2010Prop38
140
0.0
102
RTVSPost2010PropOp38
 70
     1
102
RTVSPost2010Prop39
140
1.0
102
RTVSPost2010PropOp39
 70
     1
102
RTVSPost2010Prop40
 90
        0
102
RTVSPost2010PropOp40
 70
     1
102
RTVSPost2010Prop41ColorIndex
 90
       18
102
RTVSPost2010Prop41ColorRGB
 90
        0
102
RTVSPost2010PropOp41
 70
     1
102
RTVSPost2010Prop42
 90
       50
102
RTVSPost2010PropOp42
 70
     1
102
RTVSPost2010Prop43
 90
        3
102
RTVSPost2010PropOp43
 70
     1
102
RTVSPost2010Prop44ColorIndex
 90
        5
102
RTVSPost2010Prop44ColorRGB
 90
      255
102
RTVSPost2010PropOp44
 70
     1
102
RTVSPost2010Prop45
280
     0
102
RTVSPost2010PropOp45
 70
     1
102
RTVSPost2010Prop46
 90
       50
102
RTVSPost2010PropOp46
 70
     1
102
RTVSPost2010Prop47
 90
       50
102
RTVSPost2010PropOp47
 70
     1
102
RTVSPost2010Prop48
 90
       50
102
RTVSPost2010PropOp48
 70
     1
102
RTVSPost2010Prop49
280
     0
102
RTVSPost2010PropOp49
 70
     1
102
RTVSPost2010Prop50
 90
       50
102
RTVSPost2010PropOp50
 70
     1
102
RTVSPost2010Prop51ColorIndex
 90
      256
102
RTVSPost2010Prop51ColorRGB
 90
-16777216
102
RTVSPost2010PropOp51
 70
     0
102
RTVSPost2010Prop52
140
1.0
102
RTVSPost2010PropOp52
 70
     0
102
RTVSPost2010Prop53
 90
        2
102
RTVSPost2010PropOp53
 70
     1
102
RTVSPost2010Prop54
  1
strokes_ogs.tif
102
RTVSPost2010PropOp54
 70
     1
102
RTVSPost2010Prop55
280
     0
102
RTVSPost2010PropOp55
 70
     1
102
RTVSPost2010Prop56
140
1.0
102
RTVSPost2010PropOp56
 70
     1
102
RTVSPost2010Prop57
140
1.0
102
RTVSPost2010PropOp57
 70
     1
  0
XRECORD
  5
18B
102
{ACAD_REACTORS
330
18A
102
}
330
18A
100
AcDbXrecord
280
     1
102
RTVSPropertyOp0
 70
     1
102
RTVSPropertyOp1
 70
     1
102
RTVSPropertyOp2
 70
     1
102
RTVSPropertyOp3
 70
     1
102
RTVSPropertyOp4
 70
     1
102
RTVSPropertyOp5
 70
     1
102
RTVSPropertyOp6
 70
     1
102
RTVSPropertyOp7
 70
     1
102
RTVSPropertyOp8
 70
     1
102
RTVSPropertyOp9
 70
     1
102
RTVSPropertyOp10
 70
     1
102
RTVSPropertyOp11
 70
     1
102
RTVSPropertyOp12
 70
     1
102
RTVSPropertyOp13
 70
     1
102
RTVSPropertyOp14
 70
     1
102
RTVSPropertyOp15
 70
     1
102
RTVSPropertyOp16
 70
     1
102
RTVSPropertyOp17
 70
     1
102
RTVSPropertyOp18
 70
     1
102
RTVSPropertyOp19
 70
     1
102
RTVSPropertyOp20
 70
     1
102
RTVSPropertyOp21
 70
     1
102
RTVSPropertyOp22
 70
     1
102
RTVSPropertyOp23
 70
     1
102
RTVSPropertyOp24
 70
     1
102
RTVSPropertyOp25
 70
     1
102
RTVSPropertyOp26
 70
     1
102
RTVSPropertyOp27
 70
     1
102
RTVSPropertyOp28
 70
     1
102
RTVSPropertyOp29
 70
     1
102
RTVSPropertyOp30
 70
     1
102
RTVSPropertyOp31
 70
     1
102
RTVSPropertyOp32
 70
     1
102
RTVSPropertyOp33
 70
     1
102
RTVSPropertyOp34
 70
     1
102
RTVSPropertyOp35
 70
     1
102
RTVSPropertyOp36
 70
     1
102
RTVSPropertyOp37
 70
     1
102
RTVSPropertyOp38
 70
     1
102
RTVSPropertyOp39
 70
     1
102
RTVSPropertyOp40
 70
     1
102
RTVSPropertyOp41
 70
     1
102
RTVSPropertyOp42
 70
     1
102
RTVSPropertyOp43
 70
     1
102
RTVSPropertyOp44
 70
     1
102
RTVSPropertyOp45
 70
     1
102
RTVSPropertyOp46
 70
     1
102
RTVSPropertyOp47
 70
     1
102
RTVSPropertyOp48
 70
     1
102
RTVSPropertyOp49
 70
     1
102
RTVSPropertyOp50
 70
     1
102
RTVSPropertyOp51
 70
     0
102
RTVSPropertyOp52
 70
     0
102
RTVSPropertyOp53
 70
     1
102
RTVSPropertyOp54
 70
     1
102
RTVSPropertyOp55
 70
     1
102
RTVSPropertyOp56
 70
     1
102
RTVSPropertyOp57
 70
     1
102
RTVSPost2010Prop28
280
     0
102
RTVSPost2010PropOp28
 70
     1
102
RTVSPost2010Prop29
280
     1
102
RTVSPost2010PropOp29
 70
     1
102
RTVSPost2010Prop30
280
     1
102
RTVSPost2010PropOp30
 70
     1
102
RTVSPost2010Prop31
280
     0
102
RTVSPost2010PropOp31
 70
     1
102
RTVSPost2010Prop32
280
     0
102
RTVSPost2010PropOp32
 70
     1
102
RTVSPost2010Prop33
280
     0
102
RTVSPost2010PropOp33
 70
     1
102
RTVSPost2010Prop34
280
     0
102
RTVSPost2010PropOp34
 70
     1
102
RTVSPost2010Prop35
280
     0
102
RTVSPost2010PropOp35
 70
     1
102
RTVSPost2010Prop36
280
     0
102
RTVSPost2010PropOp36
 70
     1
102
RTVSPost2010Prop37
 90
       50
102
RTVSPost2010PropOp37
 70
     1
102
RTVSPost2010Prop38
140
0.0
102
RTVSPost2010PropOp38
 70
     1
102
RTVSPost2010Prop39
140
1.0
102
RTVSPost2010PropOp39
 70
     1
102
RTVSPost2010Prop40
 90
        0
102
RTVSPost2010PropOp40
 70
     1
102
RTVSPost2010Prop41ColorIndex
 90
       18
102
RTVSPost2010Prop41ColorRGB
 90
        0
102
RTVSPost2010PropOp41
 70
     1
102
RTVSPost2010Prop42
 90
       50
102
RTVSPost2010PropOp42
 70
     1
102
RTVSPost2010Prop43
 90
        3
102
RTVSPost2010PropOp43
 70
     1
102
RTVSPost2010Prop44ColorIndex
 90
        5
102
RTVSPost2010Prop44ColorRGB
 90
      255
102
RTVSPost2010PropOp44
 70
     1
102
RTVSPost2010Prop45
280
     0
102
RTVSPost2010PropOp45
 70
     1
102
RTVSPost2010Prop46
 90
       50
102
RTVSPost2010PropOp46
 70
     1
102
RTVSPost2010Prop47
 90
       50
102
RTVSPost2010PropOp47
 70
     1
102
RTVSPost2010Prop48
 90
       50
102
RTVSPost2010PropOp48
 70
     1
102
RTVSPost2010Prop49
280
     0
102
RTVSPost2010PropOp49
 70
     1
102
RTVSPost2010Prop50
 90
       50
102
RTVSPost2010PropOp50
 70
     1
102
RTVSPost2010Prop51ColorIndex
 90
      256
102
RTVSPost2010Prop51ColorRGB
 90
-16777216
102
RTVSPost2010PropOp51
 70
     0
102
RTVSPost2010Prop52
140
1.0
102
RTVSPost2010PropOp52
 70
     0
102
RTVSPost2010Prop53
 90
        2
102
RTVSPost2010PropOp53
 70
     1
102
RTVSPost2010Prop54
  1
strokes_ogs.tif
102
RTVSPost2010PropOp54
 70
     1
102
RTVSPost2010Prop55
280
     0
102
RTVSPost2010PropOp55
 70
     1
102
RTVSPost2010Prop56
140
1.0
102
RTVSPost2010PropOp56
 70
     1
102
RTVSPost2010Prop57
140
1.0
102
RTVSPost2010PropOp57
 70
     1
  0
XRECORD
  5
18D
102
{ACAD_REACTORS
330
18C
102
}
330
18C
100
AcDbXrecord
280
     1
102
RTVSPropertyOp0
 70
     1
102
RTVSPropertyOp1
 70
     1
102
RTVSPropertyOp2
 70
     1
102
RTVSPropertyOp3
 70
     1
102
RTVSPropertyOp4
 70
     1
102
RTVSPropertyOp5
 70
     1
102
RTVSPropertyOp6
 70
     1
102
RTVSPropertyOp7
 70
     1
102
RTVSPropertyOp8
 70
     1
102
RTVSPropertyOp9
 70
     1
102
RTVSPropertyOp10
 70
     1
102
RTVSPropertyOp11
 70
     1
102
RTVSPropertyOp12
 70
     1
102
RTVSPropertyOp13
 70
     1
102
RTVSPropertyOp14
 70
     1
102
RTVSPropertyOp15
 70
     1
102
RTVSPropertyOp16
 70
     1
102
RTVSPropertyOp17
 70
     1
102
RTVSPropertyOp18
 70
     1
102
RTVSPropertyOp19
 70
     1
102
RTVSPropertyOp20
 70
     1
102
RTVSPropertyOp21
 70
     1
102
RTVSPropertyOp22
 70
     1
102
RTVSPropertyOp23
 70
     1
102
RTVSPropertyOp24
 70
     1
102
RTVSPropertyOp25
 70
     1
102
RTVSPropertyOp26
 70
     1
102
RTVSPropertyOp27
 70
     1
102
RTVSPropertyOp28
 70
     1
102
RTVSPropertyOp29
 70
     1
102
RTVSPropertyOp30
 70
     1
102
RTVSPropertyOp31
 70
     1
102
RTVSPropertyOp32
 70
     1
102
RTVSPropertyOp33
 70
     1
102
RTVSPropertyOp34
 70
     1
102
RTVSPropertyOp35
 70
     1
102
RTVSPropertyOp36
 70
     1
102
RTVSPropertyOp37
 70
     1
102
RTVSPropertyOp38
 70
     1
102
RTVSPropertyOp39
 70
     1
102
RTVSPropertyOp40
 70
     1
102
RTVSPropertyOp41
 70
     1
102
RTVSPropertyOp42
 70
     1
102
RTVSPropertyOp43
 70
     1
102
RTVSPropertyOp44
 70
     1
102
RTVSPropertyOp45
 70
     1
102
RTVSPropertyOp46
 70
     1
102
RTVSPropertyOp47
 70
     1
102
RTVSPropertyOp48
 70
     1
102
RTVSPropertyOp49
 70
     1
102
RTVSPropertyOp50
 70
     1
102
RTVSPropertyOp51
 70
     0
102
RTVSPropertyOp52
 70
     0
102
RTVSPropertyOp53
 70
     1
102
RTVSPropertyOp54
 70
     1
102
RTVSPropertyOp55
 70
     1
102
RTVSPropertyOp56
 70
     1
102
RTVSPropertyOp57
 70
     1
102
RTVSPost2010Prop28
280
     0
102
RTVSPost2010PropOp28
 70
     1
102
RTVSPost2010Prop29
280
     1
102
RTVSPost2010PropOp29
 70
     1
102
RTVSPost2010Prop30
280
     1
102
RTVSPost2010PropOp30
 70
     1
102
RTVSPost2010Prop31
280
     0
102
RTVSPost2010PropOp31
 70
     1
102
RTVSPost2010Prop32
280
     0
102
RTVSPost2010PropOp32
 70
     1
102
RTVSPost2010Prop33
280
     0
102
RTVSPost2010PropOp33
 70
     1
102
RTVSPost2010Prop34
280
     0
102
RTVSPost2010PropOp34
 70
     1
102
RTVSPost2010Prop35
280
     0
102
RTVSPost2010PropOp35
 70
     1
102
RTVSPost2010Prop36
280
     0
102
RTVSPost2010PropOp36
 70
     1
102
RTVSPost2010Prop37
 90
       50
102
RTVSPost2010PropOp37
 70
     1
102
RTVSPost2010Prop38
140
0.0
102
RTVSPost2010PropOp38
 70
     1
102
RTVSPost2010Prop39
140
1.0
102
RTVSPost2010PropOp39
 70
     1
102
RTVSPost2010Prop40
 90
        0
102
RTVSPost2010PropOp40
 70
     1
102
RTVSPost2010Prop41ColorIndex
 90
       18
102
RTVSPost2010Prop41ColorRGB
 90
        0
102
RTVSPost2010PropOp41
 70
     1
102
RTVSPost2010Prop42
 90
       50
102
RTVSPost2010PropOp42
 70
     1
102
RTVSPost2010Prop43
 90
        3
102
RTVSPost2010PropOp43
 70
     1
102
RTVSPost2010Prop44ColorIndex
 90
        5
102
RTVSPost2010Prop44ColorRGB
 90
      255
102
RTVSPost2010PropOp44
 70
     1
102
RTVSPost2010Prop45
280
     0
102
RTVSPost2010PropOp45
 70
     1
102
RTVSPost2010Prop46
 90
       50
102
RTVSPost2010PropOp46
 70
     1
102
RTVSPost2010Prop47
 90
       50
102
RTVSPost2010PropOp47
 70
     1
102
RTVSPost2010Prop48
 90
       50
102
RTVSPost2010PropOp48
 70
     1
102
RTVSPost2010Prop49
280
     0
102
RTVSPost2010PropOp49
 70
     1
102
RTVSPost2010Prop50
 90
       50
102
RTVSPost2010PropOp50
 70
     1
102
RTVSPost2010Prop51ColorIndex
 90
      256
102
RTVSPost2010Prop51ColorRGB
 90
-16777216
102
RTVSPost2010PropOp51
 70
     0
102
RTVSPost2010Prop52
140
1.0
102
RTVSPost2010PropOp52
 70
     0
102
RTVSPost2010Prop53
 90
        2
102
RTVSPost2010PropOp53
 70
     1
102
RTVSPost2010Prop54
  1
strokes_ogs.tif
102
RTVSPost2010PropOp54
 70
     1
102
RTVSPost2010Prop55
280
     0
102
RTVSPost2010PropOp55
 70
     1
102
RTVSPost2010Prop56
140
1.0
102
RTVSPost2010PropOp56
 70
     1
102
RTVSPost2010Prop57
140
1.0
102
RTVSPost2010PropOp57
 70
     1
  0
XRECORD
  5
19D
102
{ACAD_REACTORS
330
19C
102
}
330
19C
100
AcDbXrecord
280
     1
102
RTVSPropertyOp0
 70
     0
102
RTVSPropertyOp1
 70
     0
102
RTVSPropertyOp2
 70
     0
102
RTVSPropertyOp3
 70
     0
102
RTVSPropertyOp4
 70
     0
102
RTVSPropertyOp5
 70
     0
102
RTVSPropertyOp6
 70
     0
102
RTVSPropertyOp7
 70
     0
102
RTVSPropertyOp8
 70
     0
102
RTVSPropertyOp9
 70
     0
102
RTVSPropertyOp10
 70
     0
102
RTVSPropertyOp11
 70
     0
102
RTVSPropertyOp12
 70
     0
102
RTVSPropertyOp13
 70
     0
102
RTVSPropertyOp14
 70
     2
102
RTVSPropertyOp15
 70
     0
102
RTVSPropertyOp16
 70
     0
102
RTVSPropertyOp17
 70
     0
102
RTVSPropertyOp18
 70
     0
102
RTVSPropertyOp19
 70
     0
102
RTVSPropertyOp20
 70
     0
102
RTVSPropertyOp21
 70
     0
102
RTVSPropertyOp22
 70
     0
102
RTVSPropertyOp23
 70
     0
102
RTVSPropertyOp24
 70
     0
102
RTVSPropertyOp25
 70
     0
102
RTVSPropertyOp26
 70
     0
102
RTVSPropertyOp27
 70
     0
102
RTVSPropertyOp28
 70
     0
102
RTVSPropertyOp29
 70
     0
102
RTVSPropertyOp30
 70
     0
102
RTVSPropertyOp31
 70
     0
102
RTVSPropertyOp32
 70
     0
102
RTVSPropertyOp33
 70
     0
102
RTVSPropertyOp34
 70
     0
102
RTVSPropertyOp35
 70
     0
102
RTVSPropertyOp36
 70
     0
102
RTVSPropertyOp37
 70
     0
102
RTVSPropertyOp38
 70
     0
102
RTVSPropertyOp39
 70
     0
102
RTVSPropertyOp40
 70
     0
102
RTVSPropertyOp41
 70
     0
102
RTVSPropertyOp42
 70
     0
102
RTVSPropertyOp43
 70
     0
102
RTVSPropertyOp44
 70
     0
102
RTVSPropertyOp45
 70
     0
102
RTVSPropertyOp46
 70
     0
102
RTVSPropertyOp47
 70
     0
102
RTVSPropertyOp48
 70
     0
102
RTVSPropertyOp49
 70
     0
102
RTVSPropertyOp50
 70
     0
102
RTVSPropertyOp51
 70
     0
102
RTVSPropertyOp52
 70
     0
102
RTVSPropertyOp53
 70
     0
102
RTVSPropertyOp54
 70
     0
102
RTVSPropertyOp55
 70
     0
102
RTVSPropertyOp56
 70
     0
102
RTVSPropertyOp57
 70
     0
102
RTVSPost2010Prop28
280
     0
102
RTVSPost2010PropOp28
 70
     0
102
RTVSPost2010Prop29
280
     1
102
RTVSPost2010PropOp29
 70
     0
102
RTVSPost2010Prop30
280
     1
102
RTVSPost2010PropOp30
 70
     0
102
RTVSPost2010Prop31
280
     0
102
RTVSPost2010PropOp31
 70
     0
102
RTVSPost2010Prop32
280
     0
102
RTVSPost2010PropOp32
 70
     0
102
RTVSPost2010Prop33
280
     0
102
RTVSPost2010PropOp33
 70
     0
102
RTVSPost2010Prop34
280
     0
102
RTVSPost2010PropOp34
 70
     0
102
RTVSPost2010Prop35
280
     0
102
RTVSPost2010PropOp35
 70
     0
102
RTVSPost2010Prop36
280
     0
102
RTVSPost2010PropOp36
 70
     0
102
RTVSPost2010Prop37
 90
       50
102
RTVSPost2010PropOp37
 70
     0
102
RTVSPost2010Prop38
140
0.0
102
RTVSPost2010PropOp38
 70
     0
102
RTVSPost2010Prop39
140
1.0
102
RTVSPost2010PropOp39
 70
     0
102
RTVSPost2010Prop40
 90
        0
102
RTVSPost2010PropOp40
 70
     0
102
RTVSPost2010Prop41ColorIndex
 90
       18
102
RTVSPost2010Prop41ColorRGB
 90
        0
102
RTVSPost2010PropOp41
 70
     0
102
RTVSPost2010Prop42
 90
       50
102
RTVSPost2010PropOp42
 70
     0
102
RTVSPost2010Prop43
 90
        3
102
RTVSPost2010PropOp43
 70
     0
102
RTVSPost2010Prop44ColorIndex
 90
        5
102
RTVSPost2010Prop44ColorRGB
 90
      255
102
RTVSPost2010PropOp44
 70
     0
102
RTVSPost2010Prop45
280
     0
102
RTVSPost2010PropOp45
 70
     0
102
RTVSPost2010Prop46
 90
       50
102
RTVSPost2010PropOp46
 70
     0
102
RTVSPost2010Prop47
 90
       50
102
RTVSPost2010PropOp47
 70
     0
102
RTVSPost2010Prop48
 90
       50
102
RTVSPost2010PropOp48
 70
     0
102
RTVSPost2010Prop49
280
     0
102
RTVSPost2010PropOp49
 70
     0
102
RTVSPost2010Prop50
 90
       50
102
RTVSPost2010PropOp50
 70
     0
102
RTVSPost2010Prop51ColorIndex
 90
      256
102
RTVSPost2010Prop51ColorRGB
 90
-16777216
102
RTVSPost2010PropOp51
 70
     0
102
RTVSPost2010Prop52
140
1.0
102
RTVSPost2010PropOp52
 70
     0
102
RTVSPost2010Prop53
 90
        2
102
RTVSPost2010PropOp53
 70
     0
102
RTVSPost2010Prop54
  1
strokes_ogs.tif
102
RTVSPost2010PropOp54
 70
     0
102
RTVSPost2010Prop55
280
     0
102
RTVSPost2010PropOp55
 70
     0
102
RTVSPost2010Prop56
140
1.0
102
RTVSPost2010PropOp56
 70
     0
102
RTVSPost2010Prop57
140
1.0
102
RTVSPost2010PropOp57
 70
     0
  0
XRECORD
  5
195
102
{ACAD_REACTORS
330
194
102
}
330
194
100
AcDbXrecord
280
     1
102
RTVSPropertyOp0
 70
     1
102
RTVSPropertyOp1
 70
     1
102
RTVSPropertyOp2
 70
     1
102
RTVSPropertyOp3
 70
     1
102
RTVSPropertyOp4
 70
     1
102
RTVSPropertyOp5
 70
     1
102
RTVSPropertyOp6
 70
     1
102
RTVSPropertyOp7
 70
     1
102
RTVSPropertyOp8
 70
     1
102
RTVSPropertyOp9
 70
     1
102
RTVSPropertyOp10
 70
     1
102
RTVSPropertyOp11
 70
     1
102
RTVSPropertyOp12
 70
     1
102
RTVSPropertyOp13
 70
     1
102
RTVSPropertyOp14
 70
     1
102
RTVSPropertyOp15
 70
     1
102
RTVSPropertyOp16
 70
     1
102
RTVSPropertyOp17
 70
     1
102
RTVSPropertyOp18
 70
     1
102
RTVSPropertyOp19
 70
     1
102
RTVSPropertyOp20
 70
     1
102
RTVSPropertyOp21
 70
     1
102
RTVSPropertyOp22
 70
     1
102
RTVSPropertyOp23
 70
     1
102
RTVSPropertyOp24
 70
     1
102
RTVSPropertyOp25
 70
     1
102
RTVSPropertyOp26
 70
     1
102
RTVSPropertyOp27
 70
     1
102
RTVSPropertyOp28
 70
     1
102
RTVSPropertyOp29
 70
     1
102
RTVSPropertyOp30
 70
     1
102
RTVSPropertyOp31
 70
     1
102
RTVSPropertyOp32
 70
     1
102
RTVSPropertyOp33
 70
     1
102
RTVSPropertyOp34
 70
     1
102
RTVSPropertyOp35
 70
     1
102
RTVSPropertyOp36
 70
     1
102
RTVSPropertyOp37
 70
     1
102
RTVSPropertyOp38
 70
     1
102
RTVSPropertyOp39
 70
     1
102
RTVSPropertyOp40
 70
     1
102
RTVSPropertyOp41
 70
     1
102
RTVSPropertyOp42
 70
     1
102
RTVSPropertyOp43
 70
     1
102
RTVSPropertyOp44
 70
     1
102
RTVSPropertyOp45
 70
     1
102
RTVSPropertyOp46
 70
     1
102
RTVSPropertyOp47
 70
     1
102
RTVSPropertyOp48
 70
     1
102
RTVSPropertyOp49
 70
     1
102
RTVSPropertyOp50
 70
     1
102
RTVSPropertyOp51
 70
     0
102
RTVSPropertyOp52
 70
     0
102
RTVSPropertyOp53
 70
     1
102
RTVSPropertyOp54
 70
     1
102
RTVSPropertyOp55
 70
     1
102
RTVSPropertyOp56
 70
     1
102
RTVSPropertyOp57
 70
     1
102
RTVSPost2010Prop28
280
     0
102
RTVSPost2010PropOp28
 70
     1
102
RTVSPost2010Prop29
280
     1
102
RTVSPost2010PropOp29
 70
     1
102
RTVSPost2010Prop30
280
     1
102
RTVSPost2010PropOp30
 70
     1
102
RTVSPost2010Prop31
280
     0
102
RTVSPost2010PropOp31
 70
     1
102
RTVSPost2010Prop32
280
     0
102
RTVSPost2010PropOp32
 70
     1
102
RTVSPost2010Prop33
280
     0
102
RTVSPost2010PropOp33
 70
     1
102
RTVSPost2010Prop34
280
     0
102
RTVSPost2010PropOp34
 70
     1
102
RTVSPost2010Prop35
280
     0
102
RTVSPost2010PropOp35
 70
     1
102
RTVSPost2010Prop36
280
     0
102
RTVSPost2010PropOp36
 70
     1
102
RTVSPost2010Prop37
 90
       50
102
RTVSPost2010PropOp37
 70
     1
102
RTVSPost2010Prop38
140
0.0
102
RTVSPost2010PropOp38
 70
     1
102
RTVSPost2010Prop39
140
1.0
102
RTVSPost2010PropOp39
 70
     1
102
RTVSPost2010Prop40
 90
        0
102
RTVSPost2010PropOp40
 70
     1
102
RTVSPost2010Prop41ColorIndex
 90
       18
102
RTVSPost2010Prop41ColorRGB
 90
        0
102
RTVSPost2010PropOp41
 70
     1
102
RTVSPost2010Prop42
 90
       50
102
RTVSPost2010PropOp42
 70
     1
102
RTVSPost2010Prop43
 90
        3
102
RTVSPost2010PropOp43
 70
     1
102
RTVSPost2010Prop44ColorIndex
 90
        5
102
RTVSPost2010Prop44ColorRGB
 90
      255
102
RTVSPost2010PropOp44
 70
     1
102
RTVSPost2010Prop45
280
     0
102
RTVSPost2010PropOp45
 70
     1
102
RTVSPost2010Prop46
 90
       50
102
RTVSPost2010PropOp46
 70
     1
102
RTVSPost2010Prop47
 90
       50
102
RTVSPost2010PropOp47
 70
     1
102
RTVSPost2010Prop48
 90
       50
102
RTVSPost2010PropOp48
 70
     1
102
RTVSPost2010Prop49
280
     0
102
RTVSPost2010PropOp49
 70
     1
102
RTVSPost2010Prop50
 90
       50
102
RTVSPost2010PropOp50
 70
     1
102
RTVSPost2010Prop51ColorIndex
 90
      256
102
RTVSPost2010Prop51ColorRGB
 90
-16777216
102
RTVSPost2010PropOp51
 70
     0
102
RTVSPost2010Prop52
140
1.0
102
RTVSPost2010PropOp52
 70
     0
102
RTVSPost2010Prop53
 90
        2
102
RTVSPost2010PropOp53
 70
     1
102
RTVSPost2010Prop54
  1
strokes_ogs.tif
102
RTVSPost2010PropOp54
 70
     1
102
RTVSPost2010Prop55
280
     0
102
RTVSPost2010PropOp55
 70
     1
102
RTVSPost2010Prop56
140
1.0
102
RTVSPost2010PropOp56
 70
     1
102
RTVSPost2010Prop57
140
1.0
102
RTVSPost2010PropOp57
 70
     1
  0
XRECORD
  5
179
102
{ACAD_REACTORS
330
178
102
}
330
178
100
AcDbXrecord
280
     1
102
RTVSPropertyOp0
 70
     1
102
RTVSPropertyOp1
 70
     1
102
RTVSPropertyOp2
 70
     1
102
RTVSPropertyOp3
 70
     1
102
RTVSPropertyOp4
 70
     1
102
RTVSPropertyOp5
 70
     1
102
RTVSPropertyOp6
 70
     1
102
RTVSPropertyOp7
 70
     1
102
RTVSPropertyOp8
 70
     1
102
RTVSPropertyOp9
 70
     1
102
RTVSPropertyOp10
 70
     1
102
RTVSPropertyOp11
 70
     1
102
RTVSPropertyOp12
 70
     1
102
RTVSPropertyOp13
 70
     1
102
RTVSPropertyOp14
 70
     1
102
RTVSPropertyOp15
 70
     1
102
RTVSPropertyOp16
 70
     1
102
RTVSPropertyOp17
 70
     1
102
RTVSPropertyOp18
 70
     1
102
RTVSPropertyOp19
 70
     1
102
RTVSPropertyOp20
 70
     1
102
RTVSPropertyOp21
 70
     1
102
RTVSPropertyOp22
 70
     1
102
RTVSPropertyOp23
 70
     1
102
RTVSPropertyOp24
 70
     1
102
RTVSPropertyOp25
 70
     1
102
RTVSPropertyOp26
 70
     1
102
RTVSPropertyOp27
 70
     1
102
RTVSPropertyOp28
 70
     1
102
RTVSPropertyOp29
 70
     1
102
RTVSPropertyOp30
 70
     1
102
RTVSPropertyOp31
 70
     1
102
RTVSPropertyOp32
 70
     1
102
RTVSPropertyOp33
 70
     1
102
RTVSPropertyOp34
 70
     1
102
RTVSPropertyOp35
 70
     1
102
RTVSPropertyOp36
 70
     1
102
RTVSPropertyOp37
 70
     1
102
RTVSPropertyOp38
 70
     1
102
RTVSPropertyOp39
 70
     1
102
RTVSPropertyOp40
 70
     1
102
RTVSPropertyOp41
 70
     1
102
RTVSPropertyOp42
 70
     1
102
RTVSPropertyOp43
 70
     1
102
RTVSPropertyOp44
 70
     1
102
RTVSPropertyOp45
 70
     1
102
RTVSPropertyOp46
 70
     1
102
RTVSPropertyOp47
 70
     1
102
RTVSPropertyOp48
 70
     1
102
RTVSPropertyOp49
 70
     1
102
RTVSPropertyOp50
 70
     1
102
RTVSPropertyOp51
 70
     0
102
RTVSPropertyOp52
 70
     0
102
RTVSPropertyOp53
 70
     1
102
RTVSPropertyOp54
 70
     1
102
RTVSPropertyOp55
 70
     1
102
RTVSPropertyOp56
 70
     1
102
RTVSPropertyOp57
 70
     1
102
RTVSPost2010Prop28
280
     0
102
RTVSPost2010PropOp28
 70
     1
102
RTVSPost2010Prop29
280
     1
102
RTVSPost2010PropOp29
 70
     1
102
RTVSPost2010Prop30
280
     1
102
RTVSPost2010PropOp30
 70
     1
102
RTVSPost2010Prop31
280
     0
102
RTVSPost2010PropOp31
 70
     1
102
RTVSPost2010Prop32
280
     0
102
RTVSPost2010PropOp32
 70
     1
102
RTVSPost2010Prop33
280
     0
102
RTVSPost2010PropOp33
 70
     1
102
RTVSPost2010Prop34
280
     0
102
RTVSPost2010PropOp34
 70
     1
102
RTVSPost2010Prop35
280
     0
102
RTVSPost2010PropOp35
 70
     1
102
RTVSPost2010Prop36
280
     0
102
RTVSPost2010PropOp36
 70
     1
102
RTVSPost2010Prop37
 90
       50
102
RTVSPost2010PropOp37
 70
     1
102
RTVSPost2010Prop38
140
0.0
102
RTVSPost2010PropOp38
 70
     1
102
RTVSPost2010Prop39
140
1.0
102
RTVSPost2010PropOp39
 70
     1
102
RTVSPost2010Prop40
 90
        0
102
RTVSPost2010PropOp40
 70
     1
102
RTVSPost2010Prop41ColorIndex
 90
       18
102
RTVSPost2010Prop41ColorRGB
 90
        0
102
RTVSPost2010PropOp41
 70
     1
102
RTVSPost2010Prop42
 90
       50
102
RTVSPost2010PropOp42
 70
     1
102
RTVSPost2010Prop43
 90
        3
102
RTVSPost2010PropOp43
 70
     1
102
RTVSPost2010Prop44ColorIndex
 90
        5
102
RTVSPost2010Prop44ColorRGB
 90
      255
102
RTVSPost2010PropOp44
 70
     1
102
RTVSPost2010Prop45
280
     0
102
RTVSPost2010PropOp45
 70
     1
102
RTVSPost2010Prop46
 90
       50
102
RTVSPost2010PropOp46
 70
     1
102
RTVSPost2010Prop47
 90
       50
102
RTVSPost2010PropOp47
 70
     1
102
RTVSPost2010Prop48
 90
       50
102
RTVSPost2010PropOp48
 70
     1
102
RTVSPost2010Prop49
280
     0
102
RTVSPost2010PropOp49
 70
     1
102
RTVSPost2010Prop50
 90
       50
102
RTVSPost2010PropOp50
 70
     1
102
RTVSPost2010Prop51ColorIndex
 90
      256
102
RTVSPost2010Prop51ColorRGB
 90
-16777216
102
RTVSPost2010PropOp51
 70
     0
102
RTVSPost2010Prop52
140
1.0
102
RTVSPost2010PropOp52
 70
     0
102
RTVSPost2010Prop53
 90
        2
102
RTVSPost2010PropOp53
 70
     1
102
RTVSPost2010Prop54
  1
strokes_ogs.tif
102
RTVSPost2010PropOp54
 70
     1
102
RTVSPost2010Prop55
280
     0
102
RTVSPost2010PropOp55
 70
     1
102
RTVSPost2010Prop56
140
1.0
102
RTVSPost2010PropOp56
 70
     1
102
RTVSPost2010Prop57
140
1.0
102
RTVSPost2010PropOp57
 70
     1
  0
XRECORD
  5
17B
102
{ACAD_REACTORS
330
17A
102
}
330
17A
100
AcDbXrecord
280
     1
102
RTVSPropertyOp0
 70
     1
102
RTVSPropertyOp1
 70
     1
102
RTVSPropertyOp2
 70
     1
102
RTVSPropertyOp3
 70
     1
102
RTVSPropertyOp4
 70
     1
102
RTVSPropertyOp5
 70
     1
102
RTVSPropertyOp6
 70
     1
102
RTVSPropertyOp7
 70
     1
102
RTVSPropertyOp8
 70
     1
102
RTVSPropertyOp9
 70
     1
102
RTVSPropertyOp10
 70
     1
102
RTVSPropertyOp11
 70
     1
102
RTVSPropertyOp12
 70
     1
102
RTVSPropertyOp13
 70
     1
102
RTVSPropertyOp14
 70
     1
102
RTVSPropertyOp15
 70
     1
102
RTVSPropertyOp16
 70
     1
102
RTVSPropertyOp17
 70
     1
102
RTVSPropertyOp18
 70
     1
102
RTVSPropertyOp19
 70
     1
102
RTVSPropertyOp20
 70
     1
102
RTVSPropertyOp21
 70
     1
102
RTVSPropertyOp22
 70
     1
102
RTVSPropertyOp23
 70
     1
102
RTVSPropertyOp24
 70
     1
102
RTVSPropertyOp25
 70
     1
102
RTVSPropertyOp26
 70
     1
102
RTVSPropertyOp27
 70
     1
102
RTVSPropertyOp28
 70
     1
102
RTVSPropertyOp29
 70
     1
102
RTVSPropertyOp30
 70
     1
102
RTVSPropertyOp31
 70
     1
102
RTVSPropertyOp32
 70
     1
102
RTVSPropertyOp33
 70
     1
102
RTVSPropertyOp34
 70
     1
102
RTVSPropertyOp35
 70
     1
102
RTVSPropertyOp36
 70
     1
102
RTVSPropertyOp37
 70
     1
102
RTVSPropertyOp38
 70
     1
102
RTVSPropertyOp39
 70
     1
102
RTVSPropertyOp40
 70
     1
102
RTVSPropertyOp41
 70
     1
102
RTVSPropertyOp42
 70
     1
102
RTVSPropertyOp43
 70
     1
102
RTVSPropertyOp44
 70
     1
102
RTVSPropertyOp45
 70
     1
102
RTVSPropertyOp46
 70
     1
102
RTVSPropertyOp47
 70
     1
102
RTVSPropertyOp48
 70
     1
102
RTVSPropertyOp49
 70
     1
102
RTVSPropertyOp50
 70
     1
102
RTVSPropertyOp51
 70
     0
102
RTVSPropertyOp52
 70
     0
102
RTVSPropertyOp53
 70
     1
102
RTVSPropertyOp54
 70
     1
102
RTVSPropertyOp55
 70
     1
102
RTVSPropertyOp56
 70
     1
102
RTVSPropertyOp57
 70
     1
102
RTVSPost2010Prop28
280
     0
102
RTVSPost2010PropOp28
 70
     1
102
RTVSPost2010Prop29
280
     1
102
RTVSPost2010PropOp29
 70
     1
102
RTVSPost2010Prop30
280
     1
102
RTVSPost2010PropOp30
 70
     1
102
RTVSPost2010Prop31
280
     0
102
RTVSPost2010PropOp31
 70
     1
102
RTVSPost2010Prop32
280
     0
102
RTVSPost2010PropOp32
 70
     1
102
RTVSPost2010Prop33
280
     0
102
RTVSPost2010PropOp33
 70
     1
102
RTVSPost2010Prop34
280
     0
102
RTVSPost2010PropOp34
 70
     1
102
RTVSPost2010Prop35
280
     0
102
RTVSPost2010PropOp35
 70
     1
102
RTVSPost2010Prop36
280
     0
102
RTVSPost2010PropOp36
 70
     1
102
RTVSPost2010Prop37
 90
       50
102
RTVSPost2010PropOp37
 70
     1
102
RTVSPost2010Prop38
140
0.0
102
RTVSPost2010PropOp38
 70
     1
102
RTVSPost2010Prop39
140
1.0
102
RTVSPost2010PropOp39
 70
     1
102
RTVSPost2010Prop40
 90
        0
102
RTVSPost2010PropOp40
 70
     1
102
RTVSPost2010Prop41ColorIndex
 90
       18
102
RTVSPost2010Prop41ColorRGB
 90
        0
102
RTVSPost2010PropOp41
 70
     1
102
RTVSPost2010Prop42
 90
       50
102
RTVSPost2010PropOp42
 70
     1
102
RTVSPost2010Prop43
 90
        3
102
RTVSPost2010PropOp43
 70
     1
102
RTVSPost2010Prop44ColorIndex
 90
        5
102
RTVSPost2010Prop44ColorRGB
 90
      255
102
RTVSPost2010PropOp44
 70
     1
102
RTVSPost2010Prop45
280
     0
102
RTVSPost2010PropOp45
 70
     1
102
RTVSPost2010Prop46
 90
       50
102
RTVSPost2010PropOp46
 70
     1
102
RTVSPost2010Prop47
 90
       50
102
RTVSPost2010PropOp47
 70
     1
102
RTVSPost2010Prop48
 90
       50
102
RTVSPost2010PropOp48
 70
     1
102
RTVSPost2010Prop49
280
     0
102
RTVSPost2010PropOp49
 70
     1
102
RTVSPost2010Prop50
 90
       50
102
RTVSPost2010PropOp50
 70
     1
102
RTVSPost2010Prop51ColorIndex
 90
      256
102
RTVSPost2010Prop51ColorRGB
 90
-16777216
102
RTVSPost2010PropOp51
 70
     0
102
RTVSPost2010Prop52
140
1.0
102
RTVSPost2010PropOp52
 70
     0
102
RTVSPost2010Prop53
 90
        2
102
RTVSPost2010PropOp53
 70
     1
102
RTVSPost2010Prop54
  1
strokes_ogs.tif
102
RTVSPost2010PropOp54
 70
     1
102
RTVSPost2010Prop55
280
     0
102
RTVSPost2010PropOp55
 70
     1
102
RTVSPost2010Prop56
140
1.0
102
RTVSPost2010PropOp56
 70
     1
102
RTVSPost2010Prop57
140
1.0
102
RTVSPost2010PropOp57
 70
     1
  0
XRECORD
  5
17D
102
{ACAD_REACTORS
330
17C
102
}
330
17C
100
AcDbXrecord
280
     1
102
RTVSPropertyOp0
 70
     1
102
RTVSPropertyOp1
 70
     1
102
RTVSPropertyOp2
 70
     1
102
RTVSPropertyOp3
 70
     1
102
RTVSPropertyOp4
 70
     1
102
RTVSPropertyOp5
 70
     1
102
RTVSPropertyOp6
 70
     1
102
RTVSPropertyOp7
 70
     1
102
RTVSPropertyOp8
 70
     1
102
RTVSPropertyOp9
 70
     1
102
RTVSPropertyOp10
 70
     1
102
RTVSPropertyOp11
 70
     1
102
RTVSPropertyOp12
 70
     1
102
RTVSPropertyOp13
 70
     1
102
RTVSPropertyOp14
 70
     1
102
RTVSPropertyOp15
 70
     1
102
RTVSPropertyOp16
 70
     1
102
RTVSPropertyOp17
 70
     1
102
RTVSPropertyOp18
 70
     1
102
RTVSPropertyOp19
 70
     1
102
RTVSPropertyOp20
 70
     1
102
RTVSPropertyOp21
 70
     1
102
RTVSPropertyOp22
 70
     1
102
RTVSPropertyOp23
 70
     1
102
RTVSPropertyOp24
 70
     1
102
RTVSPropertyOp25
 70
     1
102
RTVSPropertyOp26
 70
     1
102
RTVSPropertyOp27
 70
     1
102
RTVSPropertyOp28
 70
     1
102
RTVSPropertyOp29
 70
     1
102
RTVSPropertyOp30
 70
     1
102
RTVSPropertyOp31
 70
     1
102
RTVSPropertyOp32
 70
     1
102
RTVSPropertyOp33
 70
     1
102
RTVSPropertyOp34
 70
     1
102
RTVSPropertyOp35
 70
     1
102
RTVSPropertyOp36
 70
     1
102
RTVSPropertyOp37
 70
     1
102
RTVSPropertyOp38
 70
     1
102
RTVSPropertyOp39
 70
     1
102
RTVSPropertyOp40
 70
     1
102
RTVSPropertyOp41
 70
     1
102
RTVSPropertyOp42
 70
     1
102
RTVSPropertyOp43
 70
     1
102
RTVSPropertyOp44
 70
     1
102
RTVSPropertyOp45
 70
     1
102
RTVSPropertyOp46
 70
     1
102
RTVSPropertyOp47
 70
     1
102
RTVSPropertyOp48
 70
     1
102
RTVSPropertyOp49
 70
     1
102
RTVSPropertyOp50
 70
     1
102
RTVSPropertyOp51
 70
     0
102
RTVSPropertyOp52
 70
     0
102
RTVSPropertyOp53
 70
     1
102
RTVSPropertyOp54
 70
     1
102
RTVSPropertyOp55
 70
     1
102
RTVSPropertyOp56
 70
     1
102
RTVSPropertyOp57
 70
     1
102
RTVSPost2010Prop28
280
     0
102
RTVSPost2010PropOp28
 70
     1
102
RTVSPost2010Prop29
280
     1
102
RTVSPost2010PropOp29
 70
     1
102
RTVSPost2010Prop30
280
     1
102
RTVSPost2010PropOp30
 70
     1
102
RTVSPost2010Prop31
280
     0
102
RTVSPost2010PropOp31
 70
     1
102
RTVSPost2010Prop32
280
     0
102
RTVSPost2010PropOp32
 70
     1
102
RTVSPost2010Prop33
280
     0
102
RTVSPost2010PropOp33
 70
     1
102
RTVSPost2010Prop34
280
     0
102
RTVSPost2010PropOp34
 70
     1
102
RTVSPost2010Prop35
280
     0
102
RTVSPost2010PropOp35
 70
     1
102
RTVSPost2010Prop36
280
     0
102
RTVSPost2010PropOp36
 70
     1
102
RTVSPost2010Prop37
 90
       50
102
RTVSPost2010PropOp37
 70
     1
102
RTVSPost2010Prop38
140
0.0
102
RTVSPost2010PropOp38
 70
     1
102
RTVSPost2010Prop39
140
1.0
102
RTVSPost2010PropOp39
 70
     1
102
RTVSPost2010Prop40
 90
        0
102
RTVSPost2010PropOp40
 70
     1
102
RTVSPost2010Prop41ColorIndex
 90
       18
102
RTVSPost2010Prop41ColorRGB
 90
        0
102
RTVSPost2010PropOp41
 70
     1
102
RTVSPost2010Prop42
 90
       50
102
RTVSPost2010PropOp42
 70
     1
102
RTVSPost2010Prop43
 90
        3
102
RTVSPost2010PropOp43
 70
     1
102
RTVSPost2010Prop44ColorIndex
 90
        5
102
RTVSPost2010Prop44ColorRGB
 90
      255
102
RTVSPost2010PropOp44
 70
     1
102
RTVSPost2010Prop45
280
     0
102
RTVSPost2010PropOp45
 70
     1
102
RTVSPost2010Prop46
 90
       50
102
RTVSPost2010PropOp46
 70
     1
102
RTVSPost2010Prop47
 90
       50
102
RTVSPost2010PropOp47
 70
     1
102
RTVSPost2010Prop48
 90
       50
102
RTVSPost2010PropOp48
 70
     1
102
RTVSPost2010Prop49
280
     0
102
RTVSPost2010PropOp49
 70
     1
102
RTVSPost2010Prop50
 90
       50
102
RTVSPost2010PropOp50
 70
     1
102
RTVSPost2010Prop51ColorIndex
 90
      256
102
RTVSPost2010Prop51ColorRGB
 90
-16777216
102
RTVSPost2010PropOp51
 70
     0
102
RTVSPost2010Prop52
140
1.0
102
RTVSPost2010PropOp52
 70
     0
102
RTVSPost2010Prop53
 90
        2
102
RTVSPost2010PropOp53
 70
     1
102
RTVSPost2010Prop54
  1
strokes_ogs.tif
102
RTVSPost2010PropOp54
 70
     1
102
RTVSPost2010Prop55
280
     0
102
RTVSPost2010PropOp55
 70
     1
102
RTVSPost2010Prop56
140
1.0
102
RTVSPost2010PropOp56
 70
     1
102
RTVSPost2010Prop57
140
1.0
102
RTVSPost2010PropOp57
 70
     1
  0
XRECORD
  5
17F
102
{ACAD_REACTORS
330
17E
102
}
330
17E
100
AcDbXrecord
280
     1
102
RTVSPropertyOp0
 70
     1
102
RTVSPropertyOp1
 70
     1
102
RTVSPropertyOp2
 70
     1
102
RTVSPropertyOp3
 70
     1
102
RTVSPropertyOp4
 70
     1
102
RTVSPropertyOp5
 70
     1
102
RTVSPropertyOp6
 70
     1
102
RTVSPropertyOp7
 70
     1
102
RTVSPropertyOp8
 70
     1
102
RTVSPropertyOp9
 70
     1
102
RTVSPropertyOp10
 70
     1
102
RTVSPropertyOp11
 70
     1
102
RTVSPropertyOp12
 70
     1
102
RTVSPropertyOp13
 70
     1
102
RTVSPropertyOp14
 70
     1
102
RTVSPropertyOp15
 70
     1
102
RTVSPropertyOp16
 70
     1
102
RTVSPropertyOp17
 70
     1
102
RTVSPropertyOp18
 70
     1
102
RTVSPropertyOp19
 70
     1
102
RTVSPropertyOp20
 70
     1
102
RTVSPropertyOp21
 70
     1
102
RTVSPropertyOp22
 70
     1
102
RTVSPropertyOp23
 70
     1
102
RTVSPropertyOp24
 70
     1
102
RTVSPropertyOp25
 70
     1
102
RTVSPropertyOp26
 70
     1
102
RTVSPropertyOp27
 70
     1
102
RTVSPropertyOp28
 70
     1
102
RTVSPropertyOp29
 70
     1
102
RTVSPropertyOp30
 70
     1
102
RTVSPropertyOp31
 70
     1
102
RTVSPropertyOp32
 70
     1
102
RTVSPropertyOp33
 70
     1
102
RTVSPropertyOp34
 70
     1
102
RTVSPropertyOp35
 70
     1
102
RTVSPropertyOp36
 70
     1
102
RTVSPropertyOp37
 70
     1
102
RTVSPropertyOp38
 70
     1
102
RTVSPropertyOp39
 70
     1
102
RTVSPropertyOp40
 70
     1
102
RTVSPropertyOp41
 70
     1
102
RTVSPropertyOp42
 70
     1
102
RTVSPropertyOp43
 70
     1
102
RTVSPropertyOp44
 70
     1
102
RTVSPropertyOp45
 70
     1
102
RTVSPropertyOp46
 70
     1
102
RTVSPropertyOp47
 70
     1
102
RTVSPropertyOp48
 70
     1
102
RTVSPropertyOp49
 70
     1
102
RTVSPropertyOp50
 70
     1
102
RTVSPropertyOp51
 70
     0
102
RTVSPropertyOp52
 70
     0
102
RTVSPropertyOp53
 70
     1
102
RTVSPropertyOp54
 70
     1
102
RTVSPropertyOp55
 70
     1
102
RTVSPropertyOp56
 70
     1
102
RTVSPropertyOp57
 70
     1
102
RTVSPost2010Prop28
280
     0
102
RTVSPost2010PropOp28
 70
     1
102
RTVSPost2010Prop29
280
     1
102
RTVSPost2010PropOp29
 70
     1
102
RTVSPost2010Prop30
280
     1
102
RTVSPost2010PropOp30
 70
     1
102
RTVSPost2010Prop31
280
     0
102
RTVSPost2010PropOp31
 70
     1
102
RTVSPost2010Prop32
280
     0
102
RTVSPost2010PropOp32
 70
     1
102
RTVSPost2010Prop33
280
     0
102
RTVSPost2010PropOp33
 70
     1
102
RTVSPost2010Prop34
280
     0
102
RTVSPost2010PropOp34
 70
     1
102
RTVSPost2010Prop35
280
     0
102
RTVSPost2010PropOp35
 70
     1
102
RTVSPost2010Prop36
280
     0
102
RTVSPost2010PropOp36
 70
     1
102
RTVSPost2010Prop37
 90
       50
102
RTVSPost2010PropOp37
 70
     1
102
RTVSPost2010Prop38
140
0.0
102
RTVSPost2010PropOp38
 70
     1
102
RTVSPost2010Prop39
140
1.0
102
RTVSPost2010PropOp39
 70
     1
102
RTVSPost2010Prop40
 90
        0
102
RTVSPost2010PropOp40
 70
     1
102
RTVSPost2010Prop41ColorIndex
 90
       18
102
RTVSPost2010Prop41ColorRGB
 90
        0
102
RTVSPost2010PropOp41
 70
     1
102
RTVSPost2010Prop42
 90
       50
102
RTVSPost2010PropOp42
 70
     1
102
RTVSPost2010Prop43
 90
        3
102
RTVSPost2010PropOp43
 70
     1
102
RTVSPost2010Prop44ColorIndex
 90
        5
102
RTVSPost2010Prop44ColorRGB
 90
      255
102
RTVSPost2010PropOp44
 70
     1
102
RTVSPost2010Prop45
280
     0
102
RTVSPost2010PropOp45
 70
     1
102
RTVSPost2010Prop46
 90
       50
102
RTVSPost2010PropOp46
 70
     1
102
RTVSPost2010Prop47
 90
       50
102
RTVSPost2010PropOp47
 70
     1
102
RTVSPost2010Prop48
 90
       50
102
RTVSPost2010PropOp48
 70
     1
102
RTVSPost2010Prop49
280
     0
102
RTVSPost2010PropOp49
 70
     1
102
RTVSPost2010Prop50
 90
       50
102
RTVSPost2010PropOp50
 70
     1
102
RTVSPost2010Prop51ColorIndex
 90
      256
102
RTVSPost2010Prop51ColorRGB
 90
-16777216
102
RTVSPost2010PropOp51
 70
     0
102
RTVSPost2010Prop52
140
1.0
102
RTVSPost2010PropOp52
 70
     0
102
RTVSPost2010Prop53
 90
        2
102
RTVSPost2010PropOp53
 70
     1
102
RTVSPost2010Prop54
  1
strokes_ogs.tif
102
RTVSPost2010PropOp54
 70
     1
102
RTVSPost2010Prop55
280
     0
102
RTVSPost2010PropOp55
 70
     1
102
RTVSPost2010Prop56
140
1.0
102
RTVSPost2010PropOp56
 70
     1
102
RTVSPost2010Prop57
140
1.0
102
RTVSPost2010PropOp57
 70
     1
  0
XRECORD
  5
185
102
{ACAD_REACTORS
330
184
102
}
330
184
100
AcDbXrecord
280
     1
102
RTVSPropertyOp0
 70
     1
102
RTVSPropertyOp1
 70
     1
102
RTVSPropertyOp2
 70
     1
102
RTVSPropertyOp3
 70
     1
102
RTVSPropertyOp4
 70
     1
102
RTVSPropertyOp5
 70
     1
102
RTVSPropertyOp6
 70
     1
102
RTVSPropertyOp7
 70
     1
102
RTVSPropertyOp8
 70
     1
102
RTVSPropertyOp9
 70
     1
102
RTVSPropertyOp10
 70
     1
102
RTVSPropertyOp11
 70
     1
102
RTVSPropertyOp12
 70
     1
102
RTVSPropertyOp13
 70
     1
102
RTVSPropertyOp14
 70
     1
102
RTVSPropertyOp15
 70
     1
102
RTVSPropertyOp16
 70
     1
102
RTVSPropertyOp17
 70
     1
102
RTVSPropertyOp18
 70
     1
102
RTVSPropertyOp19
 70
     1
102
RTVSPropertyOp20
 70
     1
102
RTVSPropertyOp21
 70
     1
102
RTVSPropertyOp22
 70
     1
102
RTVSPropertyOp23
 70
     1
102
RTVSPropertyOp24
 70
     1
102
RTVSPropertyOp25
 70
     1
102
RTVSPropertyOp26
 70
     1
102
RTVSPropertyOp27
 70
     1
102
RTVSPropertyOp28
 70
     1
102
RTVSPropertyOp29
 70
     1
102
RTVSPropertyOp30
 70
     1
102
RTVSPropertyOp31
 70
     1
102
RTVSPropertyOp32
 70
     1
102
RTVSPropertyOp33
 70
     1
102
RTVSPropertyOp34
 70
     1
102
RTVSPropertyOp35
 70
     1
102
RTVSPropertyOp36
 70
     1
102
RTVSPropertyOp37
 70
     1
102
RTVSPropertyOp38
 70
     1
102
RTVSPropertyOp39
 70
     1
102
RTVSPropertyOp40
 70
     1
102
RTVSPropertyOp41
 70
     1
102
RTVSPropertyOp42
 70
     1
102
RTVSPropertyOp43
 70
     1
102
RTVSPropertyOp44
 70
     1
102
RTVSPropertyOp45
 70
     1
102
RTVSPropertyOp46
 70
     1
102
RTVSPropertyOp47
 70
     1
102
RTVSPropertyOp48
 70
     1
102
RTVSPropertyOp49
 70
     1
102
RTVSPropertyOp50
 70
     1
102
RTVSPropertyOp51
 70
     0
102
RTVSPropertyOp52
 70
     0
102
RTVSPropertyOp53
 70
     1
102
RTVSPropertyOp54
 70
     1
102
RTVSPropertyOp55
 70
     1
102
RTVSPropertyOp56
 70
     1
102
RTVSPropertyOp57
 70
     1
102
RTVSPost2010Prop28
280
     0
102
RTVSPost2010PropOp28
 70
     1
102
RTVSPost2010Prop29
280
     1
102
RTVSPost2010PropOp29
 70
     1
102
RTVSPost2010Prop30
280
     1
102
RTVSPost2010PropOp30
 70
     1
102
RTVSPost2010Prop31
280
     0
102
RTVSPost2010PropOp31
 70
     1
102
RTVSPost2010Prop32
280
     0
102
RTVSPost2010PropOp32
 70
     1
102
RTVSPost2010Prop33
280
     0
102
RTVSPost2010PropOp33
 70
     1
102
RTVSPost2010Prop34
280
     0
102
RTVSPost2010PropOp34
 70
     1
102
RTVSPost2010Prop35
280
     0
102
RTVSPost2010PropOp35
 70
     1
102
RTVSPost2010Prop36
280
     0
102
RTVSPost2010PropOp36
 70
     1
102
RTVSPost2010Prop37
 90
       50
102
RTVSPost2010PropOp37
 70
     1
102
RTVSPost2010Prop38
140
0.0
102
RTVSPost2010PropOp38
 70
     1
102
RTVSPost2010Prop39
140
1.0
102
RTVSPost2010PropOp39
 70
     1
102
RTVSPost2010Prop40
 90
        0
102
RTVSPost2010PropOp40
 70
     1
102
RTVSPost2010Prop41ColorIndex
 90
       18
102
RTVSPost2010Prop41ColorRGB
 90
        0
102
RTVSPost2010PropOp41
 70
     1
102
RTVSPost2010Prop42
 90
       50
102
RTVSPost2010PropOp42
 70
     1
102
RTVSPost2010Prop43
 90
        3
102
RTVSPost2010PropOp43
 70
     1
102
RTVSPost2010Prop44ColorIndex
 90
        5
102
RTVSPost2010Prop44ColorRGB
 90
      255
102
RTVSPost2010PropOp44
 70
     1
102
RTVSPost2010Prop45
280
     0
102
RTVSPost2010PropOp45
 70
     1
102
RTVSPost2010Prop46
 90
       50
102
RTVSPost2010PropOp46
 70
     1
102
RTVSPost2010Prop47
 90
       50
102
RTVSPost2010PropOp47
 70
     1
102
RTVSPost2010Prop48
 90
       50
102
RTVSPost2010PropOp48
 70
     1
102
RTVSPost2010Prop49
280
     0
102
RTVSPost2010PropOp49
 70
     1
102
RTVSPost2010Prop50
 90
       50
102
RTVSPost2010PropOp50
 70
     1
102
RTVSPost2010Prop51ColorIndex
 90
      256
102
RTVSPost2010Prop51ColorRGB
 90
-16777216
102
RTVSPost2010PropOp51
 70
     0
102
RTVSPost2010Prop52
140
1.0
102
RTVSPost2010PropOp52
 70
     0
102
RTVSPost2010Prop53
 90
        2
102
RTVSPost2010PropOp53
 70
     1
102
RTVSPost2010Prop54
  1
strokes_ogs.tif
102
RTVSPost2010PropOp54
 70
     1
102
RTVSPost2010Prop55
280
     0
102
RTVSPost2010PropOp55
 70
     1
102
RTVSPost2010Prop56
140
1.0
102
RTVSPost2010PropOp56
 70
     1
102
RTVSPost2010Prop57
140
1.0
102
RTVSPost2010PropOp57
 70
     1
  0
XRECORD
  5
199
102
{ACAD_REACTORS
330
198
102
}
330
198
100
AcDbXrecord
280
     1
102
RTVSPropertyOp0
 70
     0
102
RTVSPropertyOp1
 70
     0
102
RTVSPropertyOp2
 70
     0
102
RTVSPropertyOp3
 70
     0
102
RTVSPropertyOp4
 70
     0
102
RTVSPropertyOp5
 70
     0
102
RTVSPropertyOp6
 70
     0
102
RTVSPropertyOp7
 70
     0
102
RTVSPropertyOp8
 70
     0
102
RTVSPropertyOp9
 70
     0
102
RTVSPropertyOp10
 70
     0
102
RTVSPropertyOp11
 70
     0
102
RTVSPropertyOp12
 70
     0
102
RTVSPropertyOp13
 70
     0
102
RTVSPropertyOp14
 70
     2
102
RTVSPropertyOp15
 70
     0
102
RTVSPropertyOp16
 70
     0
102
RTVSPropertyOp17
 70
     0
102
RTVSPropertyOp18
 70
     0
102
RTVSPropertyOp19
 70
     0
102
RTVSPropertyOp20
 70
     0
102
RTVSPropertyOp21
 70
     0
102
RTVSPropertyOp22
 70
     0
102
RTVSPropertyOp23
 70
     0
102
RTVSPropertyOp24
 70
     0
102
RTVSPropertyOp25
 70
     0
102
RTVSPropertyOp26
 70
     0
102
RTVSPropertyOp27
 70
     0
102
RTVSPropertyOp28
 70
     0
102
RTVSPropertyOp29
 70
     0
102
RTVSPropertyOp30
 70
     0
102
RTVSPropertyOp31
 70
     0
102
RTVSPropertyOp32
 70
     0
102
RTVSPropertyOp33
 70
     0
102
RTVSPropertyOp34
 70
     0
102
RTVSPropertyOp35
 70
     0
102
RTVSPropertyOp36
 70
     0
102
RTVSPropertyOp37
 70
     0
102
RTVSPropertyOp38
 70
     0
102
RTVSPropertyOp39
 70
     0
102
RTVSPropertyOp40
 70
     0
102
RTVSPropertyOp41
 70
     0
102
RTVSPropertyOp42
 70
     0
102
RTVSPropertyOp43
 70
     0
102
RTVSPropertyOp44
 70
     0
102
RTVSPropertyOp45
 70
     0
102
RTVSPropertyOp46
 70
     0
102
RTVSPropertyOp47
 70
     0
102
RTVSPropertyOp48
 70
     0
102
RTVSPropertyOp49
 70
     0
102
RTVSPropertyOp50
 70
     0
102
RTVSPropertyOp51
 70
     0
102
RTVSPropertyOp52
 70
     0
102
RTVSPropertyOp53
 70
     0
102
RTVSPropertyOp54
 70
     0
102
RTVSPropertyOp55
 70
     0
102
RTVSPropertyOp56
 70
     0
102
RTVSPropertyOp57
 70
     0
102
RTVSPost2010Prop28
280
     0
102
RTVSPost2010PropOp28
 70
     0
102
RTVSPost2010Prop29
280
     1
102
RTVSPost2010PropOp29
 70
     0
102
RTVSPost2010Prop30
280
     1
102
RTVSPost2010PropOp30
 70
     0
102
RTVSPost2010Prop31
280
     0
102
RTVSPost2010PropOp31
 70
     0
102
RTVSPost2010Prop32
280
     0
102
RTVSPost2010PropOp32
 70
     0
102
RTVSPost2010Prop33
280
     0
102
RTVSPost2010PropOp33
 70
     0
102
RTVSPost2010Prop34
280
     0
102
RTVSPost2010PropOp34
 70
     0
102
RTVSPost2010Prop35
280
     0
102
RTVSPost2010PropOp35
 70
     0
102
RTVSPost2010Prop36
280
     0
102
RTVSPost2010PropOp36
 70
     0
102
RTVSPost2010Prop37
 90
       50
102
RTVSPost2010PropOp37
 70
     0
102
RTVSPost2010Prop38
140
0.0
102
RTVSPost2010PropOp38
 70
     0
102
RTVSPost2010Prop39
140
1.0
102
RTVSPost2010PropOp39
 70
     0
102
RTVSPost2010Prop40
 90
        0
102
RTVSPost2010PropOp40
 70
     0
102
RTVSPost2010Prop41ColorIndex
 90
       18
102
RTVSPost2010Prop41ColorRGB
 90
        0
102
RTVSPost2010PropOp41
 70
     0
102
RTVSPost2010Prop42
 90
       50
102
RTVSPost2010PropOp42
 70
     0
102
RTVSPost2010Prop43
 90
        3
102
RTVSPost2010PropOp43
 70
     0
102
RTVSPost2010Prop44ColorIndex
 90
        5
102
RTVSPost2010Prop44ColorRGB
 90
      255
102
RTVSPost2010PropOp44
 70
     0
102
RTVSPost2010Prop45
280
     0
102
RTVSPost2010PropOp45
 70
     0
102
RTVSPost2010Prop46
 90
       50
102
RTVSPost2010PropOp46
 70
     0
102
RTVSPost2010Prop47
 90
       50
102
RTVSPost2010PropOp47
 70
     0
102
RTVSPost2010Prop48
 90
       50
102
RTVSPost2010PropOp48
 70
     0
102
RTVSPost2010Prop49
280
     0
102
RTVSPost2010PropOp49
 70
     0
102
RTVSPost2010Prop50
 90
       50
102
RTVSPost2010PropOp50
 70
     0
102
RTVSPost2010Prop51ColorIndex
 90
      256
102
RTVSPost2010Prop51ColorRGB
 90
-16777216
102
RTVSPost2010PropOp51
 70
     0
102
RTVSPost2010Prop52
140
1.0
102
RTVSPost2010PropOp52
 70
     0
102
RTVSPost2010Prop53
 90
        2
102
RTVSPost2010PropOp53
 70
     0
102
RTVSPost2010Prop54
  1
strokes_ogs.tif
102
RTVSPost2010PropOp54
 70
     0
102
RTVSPost2010Prop55
280
     0
102
RTVSPost2010PropOp55
 70
     0
102
RTVSPost2010Prop56
140
1.0
102
RTVSPost2010PropOp56
 70
     0
102
RTVSPost2010Prop57
140
1.0
102
RTVSPost2010PropOp57
 70
     0
  0
XRECORD
  5
193
102
{ACAD_REACTORS
330
192
102
}
330
192
100
AcDbXrecord
280
     1
102
RTVSPropertyOp0
 70
     1
102
RTVSPropertyOp1
 70
     1
102
RTVSPropertyOp2
 70
     1
102
RTVSPropertyOp3
 70
     1
102
RTVSPropertyOp4
 70
     1
102
RTVSPropertyOp5
 70
     1
102
RTVSPropertyOp6
 70
     1
102
RTVSPropertyOp7
 70
     1
102
RTVSPropertyOp8
 70
     1
102
RTVSPropertyOp9
 70
     1
102
RTVSPropertyOp10
 70
     1
102
RTVSPropertyOp11
 70
     1
102
RTVSPropertyOp12
 70
     1
102
RTVSPropertyOp13
 70
     1
102
RTVSPropertyOp14
 70
     1
102
RTVSPropertyOp15
 70
     1
102
RTVSPropertyOp16
 70
     1
102
RTVSPropertyOp17
 70
     1
102
RTVSPropertyOp18
 70
     1
102
RTVSPropertyOp19
 70
     1
102
RTVSPropertyOp20
 70
     1
102
RTVSPropertyOp21
 70
     1
102
RTVSPropertyOp22
 70
     1
102
RTVSPropertyOp23
 70
     1
102
RTVSPropertyOp24
 70
     1
102
RTVSPropertyOp25
 70
     1
102
RTVSPropertyOp26
 70
     1
102
RTVSPropertyOp27
 70
     1
102
RTVSPropertyOp28
 70
     1
102
RTVSPropertyOp29
 70
     1
102
RTVSPropertyOp30
 70
     1
102
RTVSPropertyOp31
 70
     1
102
RTVSPropertyOp32
 70
     1
102
RTVSPropertyOp33
 70
     1
102
RTVSPropertyOp34
 70
     1
102
RTVSPropertyOp35
 70
     1
102
RTVSPropertyOp36
 70
     1
102
RTVSPropertyOp37
 70
     1
102
RTVSPropertyOp38
 70
     1
102
RTVSPropertyOp39
 70
     1
102
RTVSPropertyOp40
 70
     1
102
RTVSPropertyOp41
 70
     1
102
RTVSPropertyOp42
 70
     1
102
RTVSPropertyOp43
 70
     1
102
RTVSPropertyOp44
 70
     1
102
RTVSPropertyOp45
 70
     1
102
RTVSPropertyOp46
 70
     1
102
RTVSPropertyOp47
 70
     1
102
RTVSPropertyOp48
 70
     1
102
RTVSPropertyOp49
 70
     1
102
RTVSPropertyOp50
 70
     1
102
RTVSPropertyOp51
 70
     0
102
RTVSPropertyOp52
 70
     0
102
RTVSPropertyOp53
 70
     1
102
RTVSPropertyOp54
 70
     1
102
RTVSPropertyOp55
 70
     1
102
RTVSPropertyOp56
 70
     1
102
RTVSPropertyOp57
 70
     1
102
RTVSPost2010Prop28
280
     0
102
RTVSPost2010PropOp28
 70
     1
102
RTVSPost2010Prop29
280
     1
102
RTVSPost2010PropOp29
 70
     1
102
RTVSPost2010Prop30
280
     1
102
RTVSPost2010PropOp30
 70
     1
102
RTVSPost2010Prop31
280
     0
102
RTVSPost2010PropOp31
 70
     1
102
RTVSPost2010Prop32
280
     0
102
RTVSPost2010PropOp32
 70
     1
102
RTVSPost2010Prop33
280
     0
102
RTVSPost2010PropOp33
 70
     1
102
RTVSPost2010Prop34
280
     0
102
RTVSPost2010PropOp34
 70
     1
102
RTVSPost2010Prop35
280
     0
102
RTVSPost2010PropOp35
 70
     1
102
RTVSPost2010Prop36
280
     0
102
RTVSPost2010PropOp36
 70
     1
102
RTVSPost2010Prop37
 90
       50
102
RTVSPost2010PropOp37
 70
     1
102
RTVSPost2010Prop38
140
0.0
102
RTVSPost2010PropOp38
 70
     1
102
RTVSPost2010Prop39
140
1.0
102
RTVSPost2010PropOp39
 70
     1
102
RTVSPost2010Prop40
 90
        0
102
RTVSPost2010PropOp40
 70
     1
102
RTVSPost2010Prop41ColorIndex
 90
       18
102
RTVSPost2010Prop41ColorRGB
 90
        0
102
RTVSPost2010PropOp41
 70
     1
102
RTVSPost2010Prop42
 90
       50
102
RTVSPost2010PropOp42
 70
     1
102
RTVSPost2010Prop43
 90
        3
102
RTVSPost2010PropOp43
 70
     1
102
RTVSPost2010Prop44ColorIndex
 90
        5
102
RTVSPost2010Prop44ColorRGB
 90
      255
102
RTVSPost2010PropOp44
 70
     1
102
RTVSPost2010Prop45
280
     0
102
RTVSPost2010PropOp45
 70
     1
102
RTVSPost2010Prop46
 90
       50
102
RTVSPost2010PropOp46
 70
     1
102
RTVSPost2010Prop47
 90
       50
102
RTVSPost2010PropOp47
 70
     1
102
RTVSPost2010Prop48
 90
       50
102
RTVSPost2010PropOp48
 70
     1
102
RTVSPost2010Prop49
280
     0
102
RTVSPost2010PropOp49
 70
     1
102
RTVSPost2010Prop50
 90
       50
102
RTVSPost2010PropOp50
 70
     1
102
RTVSPost2010Prop51ColorIndex
 90
      256
102
RTVSPost2010Prop51ColorRGB
 90
-16777216
102
RTVSPost2010PropOp51
 70
     0
102
RTVSPost2010Prop52
140
1.0
102
RTVSPost2010PropOp52
 70
     0
102
RTVSPost2010Prop53
 90
        2
102
RTVSPost2010PropOp53
 70
     1
102
RTVSPost2010Prop54
  1
strokes_ogs.tif
102
RTVSPost2010PropOp54
 70
     1
102
RTVSPost2010Prop55
280
     0
102
RTVSPost2010PropOp55
 70
     1
102
RTVSPost2010Prop56
140
1.0
102
RTVSPost2010PropOp56
 70
     1
102
RTVSPost2010Prop57
140
1.0
102
RTVSPost2010PropOp57
 70
     1
  0
XRECORD
  5
19B
102
{ACAD_REACTORS
330
19A
102
}
330
19A
100
AcDbXrecord
280
     1
102
RTVSPropertyOp0
 70
     0
102
RTVSPropertyOp1
 70
     0
102
RTVSPropertyOp2
 70
     0
102
RTVSPropertyOp3
 70
     0
102
RTVSPropertyOp4
 70
     0
102
RTVSPropertyOp5
 70
     0
102
RTVSPropertyOp6
 70
     0
102
RTVSPropertyOp7
 70
     0
102
RTVSPropertyOp8
 70
     0
102
RTVSPropertyOp9
 70
     0
102
RTVSPropertyOp10
 70
     0
102
RTVSPropertyOp11
 70
     0
102
RTVSPropertyOp12
 70
     0
102
RTVSPropertyOp13
 70
     0
102
RTVSPropertyOp14
 70
     2
102
RTVSPropertyOp15
 70
     0
102
RTVSPropertyOp16
 70
     0
102
RTVSPropertyOp17
 70
     0
102
RTVSPropertyOp18
 70
     0
102
RTVSPropertyOp19
 70
     0
102
RTVSPropertyOp20
 70
     0
102
RTVSPropertyOp21
 70
     0
102
RTVSPropertyOp22
 70
     0
102
RTVSPropertyOp23
 70
     0
102
RTVSPropertyOp24
 70
     0
102
RTVSPropertyOp25
 70
     0
102
RTVSPropertyOp26
 70
     0
102
RTVSPropertyOp27
 70
     0
102
RTVSPropertyOp28
 70
     0
102
RTVSPropertyOp29
 70
     0
102
RTVSPropertyOp30
 70
     0
102
RTVSPropertyOp31
 70
     0
102
RTVSPropertyOp32
 70
     0
102
RTVSPropertyOp33
 70
     0
102
RTVSPropertyOp34
 70
     0
102
RTVSPropertyOp35
 70
     0
102
RTVSPropertyOp36
 70
     0
102
RTVSPropertyOp37
 70
     0
102
RTVSPropertyOp38
 70
     0
102
RTVSPropertyOp39
 70
     0
102
RTVSPropertyOp40
 70
     0
102
RTVSPropertyOp41
 70
     0
102
RTVSPropertyOp42
 70
     0
102
RTVSPropertyOp43
 70
     0
102
RTVSPropertyOp44
 70
     0
102
RTVSPropertyOp45
 70
     0
102
RTVSPropertyOp46
 70
     0
102
RTVSPropertyOp47
 70
     0
102
RTVSPropertyOp48
 70
     0
102
RTVSPropertyOp49
 70
     0
102
RTVSPropertyOp50
 70
     0
102
RTVSPropertyOp51
 70
     0
102
RTVSPropertyOp52
 70
     0
102
RTVSPropertyOp53
 70
     0
102
RTVSPropertyOp54
 70
     0
102
RTVSPropertyOp55
 70
     0
102
RTVSPropertyOp56
 70
     0
102
RTVSPropertyOp57
 70
     0
102
RTVSPost2010Prop28
280
     0
102
RTVSPost2010PropOp28
 70
     0
102
RTVSPost2010Prop29
280
     1
102
RTVSPost2010PropOp29
 70
     0
102
RTVSPost2010Prop30
280
     1
102
RTVSPost2010PropOp30
 70
     0
102
RTVSPost2010Prop31
280
     0
102
RTVSPost2010PropOp31
 70
     0
102
RTVSPost2010Prop32
280
     0
102
RTVSPost2010PropOp32
 70
     0
102
RTVSPost2010Prop33
280
     0
102
RTVSPost2010PropOp33
 70
     0
102
RTVSPost2010Prop34
280
     0
102
RTVSPost2010PropOp34
 70
     0
102
RTVSPost2010Prop35
280
     0
102
RTVSPost2010PropOp35
 70
     0
102
RTVSPost2010Prop36
280
     0
102
RTVSPost2010PropOp36
 70
     0
102
RTVSPost2010Prop37
 90
       50
102
RTVSPost2010PropOp37
 70
     0
102
RTVSPost2010Prop38
140
0.0
102
RTVSPost2010PropOp38
 70
     0
102
RTVSPost2010Prop39
140
1.0
102
RTVSPost2010PropOp39
 70
     0
102
RTVSPost2010Prop40
 90
        0
102
RTVSPost2010PropOp40
 70
     0
102
RTVSPost2010Prop41ColorIndex
 90
       18
102
RTVSPost2010Prop41ColorRGB
 90
        0
102
RTVSPost2010PropOp41
 70
     0
102
RTVSPost2010Prop42
 90
       50
102
RTVSPost2010PropOp42
 70
     0
102
RTVSPost2010Prop43
 90
        3
102
RTVSPost2010PropOp43
 70
     0
102
RTVSPost2010Prop44ColorIndex
 90
        5
102
RTVSPost2010Prop44ColorRGB
 90
      255
102
RTVSPost2010PropOp44
 70
     0
102
RTVSPost2010Prop45
280
     0
102
RTVSPost2010PropOp45
 70
     0
102
RTVSPost2010Prop46
 90
       50
102
RTVSPost2010PropOp46
 70
     0
102
RTVSPost2010Prop47
 90
       50
102
RTVSPost2010PropOp47
 70
     0
102
RTVSPost2010Prop48
 90
       50
102
RTVSPost2010PropOp48
 70
     0
102
RTVSPost2010Prop49
280
     0
102
RTVSPost2010PropOp49
 70
     0
102
RTVSPost2010Prop50
 90
       50
102
RTVSPost2010PropOp50
 70
     0
102
RTVSPost2010Prop51ColorIndex
 90
      256
102
RTVSPost2010Prop51ColorRGB
 90
-16777216
102
RTVSPost2010PropOp51
 70
     0
102
RTVSPost2010Prop52
140
1.0
102
RTVSPost2010PropOp52
 70
     0
102
RTVSPost2010Prop53
 90
        2
102
RTVSPost2010PropOp53
 70
     0
102
RTVSPost2010Prop54
  1
strokes_ogs.tif
102
RTVSPost2010PropOp54
 70
     0
102
RTVSPost2010Prop55
280
     0
102
RTVSPost2010PropOp55
 70
     0
102
RTVSPost2010Prop56
140
1.0
102
RTVSPost2010PropOp56
 70
     0
102
RTVSPost2010Prop57
140
1.0
102
RTVSPost2010PropOp57
 70
     0
  0
XRECORD
  5
189
102
{ACAD_REACTORS
330
188
102
}
330
188
100
AcDbXrecord
280
     1
102
RTVSPropertyOp0
 70
     1
102
RTVSPropertyOp1
 70
     1
102
RTVSPropertyOp2
 70
     1
102
RTVSPropertyOp3
 70
     1
102
RTVSPropertyOp4
 70
     1
102
RTVSPropertyOp5
 70
     1
102
RTVSPropertyOp6
 70
     1
102
RTVSPropertyOp7
 70
     1
102
RTVSPropertyOp8
 70
     1
102
RTVSPropertyOp9
 70
     1
102
RTVSPropertyOp10
 70
     1
102
RTVSPropertyOp11
 70
     1
102
RTVSPropertyOp12
 70
     1
102
RTVSPropertyOp13
 70
     1
102
RTVSPropertyOp14
 70
     1
102
RTVSPropertyOp15
 70
     1
102
RTVSPropertyOp16
 70
     1
102
RTVSPropertyOp17
 70
     1
102
RTVSPropertyOp18
 70
     1
102
RTVSPropertyOp19
 70
     1
102
RTVSPropertyOp20
 70
     1
102
RTVSPropertyOp21
 70
     1
102
RTVSPropertyOp22
 70
     1
102
RTVSPropertyOp23
 70
     1
102
RTVSPropertyOp24
 70
     1
102
RTVSPropertyOp25
 70
     1
102
RTVSPropertyOp26
 70
     1
102
RTVSPropertyOp27
 70
     1
102
RTVSPropertyOp28
 70
     1
102
RTVSPropertyOp29
 70
     1
102
RTVSPropertyOp30
 70
     1
102
RTVSPropertyOp31
 70
     1
102
RTVSPropertyOp32
 70
     1
102
RTVSPropertyOp33
 70
     1
102
RTVSPropertyOp34
 70
     1
102
RTVSPropertyOp35
 70
     1
102
RTVSPropertyOp36
 70
     1
102
RTVSPropertyOp37
 70
     1
102
RTVSPropertyOp38
 70
     1
102
RTVSPropertyOp39
 70
     1
102
RTVSPropertyOp40
 70
     1
102
RTVSPropertyOp41
 70
     1
102
RTVSPropertyOp42
 70
     1
102
RTVSPropertyOp43
 70
     1
102
RTVSPropertyOp44
 70
     1
102
RTVSPropertyOp45
 70
     1
102
RTVSPropertyOp46
 70
     1
102
RTVSPropertyOp47
 70
     1
102
RTVSPropertyOp48
 70
     1
102
RTVSPropertyOp49
 70
     1
102
RTVSPropertyOp50
 70
     1
102
RTVSPropertyOp51
 70
     0
102
RTVSPropertyOp52
 70
     0
102
RTVSPropertyOp53
 70
     1
102
RTVSPropertyOp54
 70
     1
102
RTVSPropertyOp55
 70
     1
102
RTVSPropertyOp56
 70
     1
102
RTVSPropertyOp57
 70
     1
102
RTVSPost2010Prop28
280
     0
102
RTVSPost2010PropOp28
 70
     1
102
RTVSPost2010Prop29
280
     1
102
RTVSPost2010PropOp29
 70
     1
102
RTVSPost2010Prop30
280
     1
102
RTVSPost2010PropOp30
 70
     1
102
RTVSPost2010Prop31
280
     0
102
RTVSPost2010PropOp31
 70
     1
102
RTVSPost2010Prop32
280
     0
102
RTVSPost2010PropOp32
 70
     1
102
RTVSPost2010Prop33
280
     0
102
RTVSPost2010PropOp33
 70
     1
102
RTVSPost2010Prop34
280
     0
102
RTVSPost2010PropOp34
 70
     1
102
RTVSPost2010Prop35
280
     0
102
RTVSPost2010PropOp35
 70
     1
102
RTVSPost2010Prop36
280
     0
102
RTVSPost2010PropOp36
 70
     1
102
RTVSPost2010Prop37
 90
       50
102
RTVSPost2010PropOp37
 70
     1
102
RTVSPost2010Prop38
140
0.0
102
RTVSPost2010PropOp38
 70
     1
102
RTVSPost2010Prop39
140
1.0
102
RTVSPost2010PropOp39
 70
     1
102
RTVSPost2010Prop40
 90
        0
102
RTVSPost2010PropOp40
 70
     1
102
RTVSPost2010Prop41ColorIndex
 90
       18
102
RTVSPost2010Prop41ColorRGB
 90
        0
102
RTVSPost2010PropOp41
 70
     1
102
RTVSPost2010Prop42
 90
       50
102
RTVSPost2010PropOp42
 70
     1
102
RTVSPost2010Prop43
 90
        3
102
RTVSPost2010PropOp43
 70
     1
102
RTVSPost2010Prop44ColorIndex
 90
        5
102
RTVSPost2010Prop44ColorRGB
 90
      255
102
RTVSPost2010PropOp44
 70
     1
102
RTVSPost2010Prop45
280
     0
102
RTVSPost2010PropOp45
 70
     1
102
RTVSPost2010Prop46
 90
       50
102
RTVSPost2010PropOp46
 70
     1
102
RTVSPost2010Prop47
 90
       50
102
RTVSPost2010PropOp47
 70
     1
102
RTVSPost2010Prop48
 90
       50
102
RTVSPost2010PropOp48
 70
     1
102
RTVSPost2010Prop49
280
     0
102
RTVSPost2010PropOp49
 70
     1
102
RTVSPost2010Prop50
 90
       50
102
RTVSPost2010PropOp50
 70
     1
102
RTVSPost2010Prop51ColorIndex
 90
      256
102
RTVSPost2010Prop51ColorRGB
 90
-16777216
102
RTVSPost2010PropOp51
 70
     0
102
RTVSPost2010Prop52
140
1.0
102
RTVSPost2010PropOp52
 70
     0
102
RTVSPost2010Prop53
 90
        2
102
RTVSPost2010PropOp53
 70
     1
102
RTVSPost2010Prop54
  1
strokes_ogs.tif
102
RTVSPost2010PropOp54
 70
     1
102
RTVSPost2010Prop55
280
     0
102
RTVSPost2010PropOp55
 70
     1
102
RTVSPost2010Prop56
140
1.0
102
RTVSPost2010PropOp56
 70
     1
102
RTVSPost2010Prop57
140
1.0
102
RTVSPost2010PropOp57
 70
     1
  0
XRECORD
  5
1A7
102
{ACAD_REACTORS
330
1A6
102
}
330
1A6
100
AcDbXrecord
280
     1
102
RTVSPropertyOp0
 70
     1
102
RTVSPropertyOp1
 70
     1
102
RTVSPropertyOp2
 70
     1
102
RTVSPropertyOp3
 70
     1
102
RTVSPropertyOp4
 70
     1
102
RTVSPropertyOp5
 70
     1
102
RTVSPropertyOp6
 70
     1
102
RTVSPropertyOp7
 70
     1
102
RTVSPropertyOp8
 70
     1
102
RTVSPropertyOp9
 70
     1
102
RTVSPropertyOp10
 70
     1
102
RTVSPropertyOp11
 70
     1
102
RTVSPropertyOp12
 70
     1
102
RTVSPropertyOp13
 70
     1
102
RTVSPropertyOp14
 70
     1
102
RTVSPropertyOp15
 70
     1
102
RTVSPropertyOp16
 70
     1
102
RTVSPropertyOp17
 70
     1
102
RTVSPropertyOp18
 70
     1
102
RTVSPropertyOp19
 70
     1
102
RTVSPropertyOp20
 70
     1
102
RTVSPropertyOp21
 70
     1
102
RTVSPropertyOp22
 70
     1
102
RTVSPropertyOp23
 70
     1
102
RTVSPropertyOp24
 70
     1
102
RTVSPropertyOp25
 70
     1
102
RTVSPropertyOp26
 70
     1
102
RTVSPropertyOp27
 70
     1
102
RTVSPropertyOp28
 70
     1
102
RTVSPropertyOp29
 70
     1
102
RTVSPropertyOp30
 70
     1
102
RTVSPropertyOp31
 70
     1
102
RTVSPropertyOp32
 70
     1
102
RTVSPropertyOp33
 70
     1
102
RTVSPropertyOp34
 70
     1
102
RTVSPropertyOp35
 70
     1
102
RTVSPropertyOp36
 70
     1
102
RTVSPropertyOp37
 70
     1
102
RTVSPropertyOp38
 70
     1
102
RTVSPropertyOp39
 70
     1
102
RTVSPropertyOp40
 70
     1
102
RTVSPropertyOp41
 70
     1
102
RTVSPropertyOp42
 70
     1
102
RTVSPropertyOp43
 70
     1
102
RTVSPropertyOp44
 70
     1
102
RTVSPropertyOp45
 70
     1
102
RTVSPropertyOp46
 70
     1
102
RTVSPropertyOp47
 70
     1
102
RTVSPropertyOp48
 70
     1
102
RTVSPropertyOp49
 70
     1
102
RTVSPropertyOp50
 70
     1
102
RTVSPropertyOp51
 70
     0
102
RTVSPropertyOp52
 70
     0
102
RTVSPropertyOp53
 70
     1
102
RTVSPropertyOp54
 70
     1
102
RTVSPropertyOp55
 70
     1
102
RTVSPropertyOp56
 70
     1
102
RTVSPropertyOp57
 70
     1
102
RTVSPost2010Prop28
280
     0
102
RTVSPost2010PropOp28
 70
     1
102
RTVSPost2010Prop29
280
     1
102
RTVSPost2010PropOp29
 70
     1
102
RTVSPost2010Prop30
280
     1
102
RTVSPost2010PropOp30
 70
     1
102
RTVSPost2010Prop31
280
     0
102
RTVSPost2010PropOp31
 70
     1
102
RTVSPost2010Prop32
280
     0
102
RTVSPost2010PropOp32
 70
     1
102
RTVSPost2010Prop33
280
     0
102
RTVSPost2010PropOp33
 70
     1
102
RTVSPost2010Prop34
280
     0
102
RTVSPost2010PropOp34
 70
     1
102
RTVSPost2010Prop35
280
     0
102
RTVSPost2010PropOp35
 70
     1
102
RTVSPost2010Prop36
280
     0
102
RTVSPost2010PropOp36
 70
     1
102
RTVSPost2010Prop37
 90
       50
102
RTVSPost2010PropOp37
 70
     1
102
RTVSPost2010Prop38
140
0.0
102
RTVSPost2010PropOp38
 70
     1
102
RTVSPost2010Prop39
140
1.0
102
RTVSPost2010PropOp39
 70
     1
102
RTVSPost2010Prop40
 90
        0
102
RTVSPost2010PropOp40
 70
     1
102
RTVSPost2010Prop41ColorIndex
 90
       18
102
RTVSPost2010Prop41ColorRGB
 90
        0
102
RTVSPost2010PropOp41
 70
     1
102
RTVSPost2010Prop42
 90
       50
102
RTVSPost2010PropOp42
 70
     1
102
RTVSPost2010Prop43
 90
        3
102
RTVSPost2010PropOp43
 70
     1
102
RTVSPost2010Prop44ColorIndex
 90
        5
102
RTVSPost2010Prop44ColorRGB
 90
      255
102
RTVSPost2010PropOp44
 70
     1
102
RTVSPost2010Prop45
280
     0
102
RTVSPost2010PropOp45
 70
     1
102
RTVSPost2010Prop46
 90
       50
102
RTVSPost2010PropOp46
 70
     1
102
RTVSPost2010Prop47
 90
       50
102
RTVSPost2010PropOp47
 70
     1
102
RTVSPost2010Prop48
 90
       50
102
RTVSPost2010PropOp48
 70
     1
102
RTVSPost2010Prop49
280
     0
102
RTVSPost2010PropOp49
 70
     1
102
RTVSPost2010Prop50
 90
       50
102
RTVSPost2010PropOp50
 70
     1
102
RTVSPost2010Prop51ColorIndex
 90
      256
102
RTVSPost2010Prop51ColorRGB
 90
-16777216
102
RTVSPost2010PropOp51
 70
     0
102
RTVSPost2010Prop52
140
1.0
102
RTVSPost2010PropOp52
 70
     0
102
RTVSPost2010Prop53
 90
        2
102
RTVSPost2010PropOp53
 70
     1
102
RTVSPost2010Prop54
  1
strokes_ogs.tif
102
RTVSPost2010PropOp54
 70
     1
102
RTVSPost2010Prop55
280
     0
102
RTVSPost2010PropOp55
 70
     1
102
RTVSPost2010Prop56
140
1.0
102
RTVSPost2010PropOp56
 70
     1
102
RTVSPost2010Prop57
140
1.0
102
RTVSPost2010PropOp57
 70
     1
  0
XRECORD
  5
1A5
102
{ACAD_REACTORS
330
1A4
102
}
330
1A4
100
AcDbXrecord
280
     1
102
RTVSPropertyOp0
 70
     1
102
RTVSPropertyOp1
 70
     1
102
RTVSPropertyOp2
 70
     1
102
RTVSPropertyOp3
 70
     1
102
RTVSPropertyOp4
 70
     1
102
RTVSPropertyOp5
 70
     1
102
RTVSPropertyOp6
 70
     1
102
RTVSPropertyOp7
 70
     1
102
RTVSPropertyOp8
 70
     1
102
RTVSPropertyOp9
 70
     1
102
RTVSPropertyOp10
 70
     1
102
RTVSPropertyOp11
 70
     1
102
RTVSPropertyOp12
 70
     1
102
RTVSPropertyOp13
 70
     1
102
RTVSPropertyOp14
 70
     1
102
RTVSPropertyOp15
 70
     1
102
RTVSPropertyOp16
 70
     1
102
RTVSPropertyOp17
 70
     1
102
RTVSPropertyOp18
 70
     1
102
RTVSPropertyOp19
 70
     1
102
RTVSPropertyOp20
 70
     1
102
RTVSPropertyOp21
 70
     1
102
RTVSPropertyOp22
 70
     1
102
RTVSPropertyOp23
 70
     1
102
RTVSPropertyOp24
 70
     1
102
RTVSPropertyOp25
 70
     1
102
RTVSPropertyOp26
 70
     1
102
RTVSPropertyOp27
 70
     1
102
RTVSPropertyOp28
 70
     1
102
RTVSPropertyOp29
 70
     1
102
RTVSPropertyOp30
 70
     1
102
RTVSPropertyOp31
 70
     1
102
RTVSPropertyOp32
 70
     1
102
RTVSPropertyOp33
 70
     1
102
RTVSPropertyOp34
 70
     1
102
RTVSPropertyOp35
 70
     1
102
RTVSPropertyOp36
 70
     1
102
RTVSPropertyOp37
 70
     1
102
RTVSPropertyOp38
 70
     1
102
RTVSPropertyOp39
 70
     1
102
RTVSPropertyOp40
 70
     1
102
RTVSPropertyOp41
 70
     1
102
RTVSPropertyOp42
 70
     1
102
RTVSPropertyOp43
 70
     1
102
RTVSPropertyOp44
 70
     1
102
RTVSPropertyOp45
 70
     1
102
RTVSPropertyOp46
 70
     1
102
RTVSPropertyOp47
 70
     1
102
RTVSPropertyOp48
 70
     1
102
RTVSPropertyOp49
 70
     1
102
RTVSPropertyOp50
 70
     1
102
RTVSPropertyOp51
 70
     0
102
RTVSPropertyOp52
 70
     0
102
RTVSPropertyOp53
 70
     1
102
RTVSPropertyOp54
 70
     1
102
RTVSPropertyOp55
 70
     1
102
RTVSPropertyOp56
 70
     1
102
RTVSPropertyOp57
 70
     1
102
RTVSPost2010Prop28
280
     0
102
RTVSPost2010PropOp28
 70
     1
102
RTVSPost2010Prop29
280
     1
102
RTVSPost2010PropOp29
 70
     1
102
RTVSPost2010Prop30
280
     1
102
RTVSPost2010PropOp30
 70
     1
102
RTVSPost2010Prop31
280
     0
102
RTVSPost2010PropOp31
 70
     1
102
RTVSPost2010Prop32
280
     0
102
RTVSPost2010PropOp32
 70
     1
102
RTVSPost2010Prop33
280
     0
102
RTVSPost2010PropOp33
 70
     1
102
RTVSPost2010Prop34
280
     0
102
RTVSPost2010PropOp34
 70
     1
102
RTVSPost2010Prop35
280
     0
102
RTVSPost2010PropOp35
 70
     1
102
RTVSPost2010Prop36
280
     0
102
RTVSPost2010PropOp36
 70
     1
102
RTVSPost2010Prop37
 90
       50
102
RTVSPost2010PropOp37
 70
     1
102
RTVSPost2010Prop38
140
0.0
102
RTVSPost2010PropOp38
 70
     1
102
RTVSPost2010Prop39
140
1.0
102
RTVSPost2010PropOp39
 70
     1
102
RTVSPost2010Prop40
 90
        0
102
RTVSPost2010PropOp40
 70
     1
102
RTVSPost2010Prop41ColorIndex
 90
       18
102
RTVSPost2010Prop41ColorRGB
 90
        0
102
RTVSPost2010PropOp41
 70
     1
102
RTVSPost2010Prop42
 90
       50
102
RTVSPost2010PropOp42
 70
     1
102
RTVSPost2010Prop43
 90
        3
102
RTVSPost2010PropOp43
 70
     1
102
RTVSPost2010Prop44ColorIndex
 90
        5
102
RTVSPost2010Prop44ColorRGB
 90
      255
102
RTVSPost2010PropOp44
 70
     1
102
RTVSPost2010Prop45
280
     0
102
RTVSPost2010PropOp45
 70
     1
102
RTVSPost2010Prop46
 90
       50
102
RTVSPost2010PropOp46
 70
     1
102
RTVSPost2010Prop47
 90
       50
102
RTVSPost2010PropOp47
 70
     1
102
RTVSPost2010Prop48
 90
       50
102
RTVSPost2010PropOp48
 70
     1
102
RTVSPost2010Prop49
280
     0
102
RTVSPost2010PropOp49
 70
     1
102
RTVSPost2010Prop50
 90
       50
102
RTVSPost2010PropOp50
 70
     1
102
RTVSPost2010Prop51ColorIndex
 90
      256
102
RTVSPost2010Prop51ColorRGB
 90
-16777216
102
RTVSPost2010PropOp51
 70
     0
102
RTVSPost2010Prop52
140
1.0
102
RTVSPost2010PropOp52
 70
     0
102
RTVSPost2010Prop53
 90
        2
102
RTVSPost2010PropOp53
 70
     1
102
RTVSPost2010Prop54
  1
strokes_ogs.tif
102
RTVSPost2010PropOp54
 70
     1
102
RTVSPost2010Prop55
280
     0
102
RTVSPost2010PropOp55
 70
     1
102
RTVSPost2010Prop56
140
1.0
102
RTVSPost2010PropOp56
 70
     1
102
RTVSPost2010Prop57
140
1.0
102
RTVSPost2010PropOp57
 70
     1
  0
XRECORD
  5
19F
102
{ACAD_REACTORS
330
19E
102
}
330
19E
100
AcDbXrecord
280
     1
102
RTVSPropertyOp0
 70
     1
102
RTVSPropertyOp1
 70
     1
102
RTVSPropertyOp2
 70
     1
102
RTVSPropertyOp3
 70
     1
102
RTVSPropertyOp4
 70
     1
102
RTVSPropertyOp5
 70
     1
102
RTVSPropertyOp6
 70
     1
102
RTVSPropertyOp7
 70
     1
102
RTVSPropertyOp8
 70
     1
102
RTVSPropertyOp9
 70
     1
102
RTVSPropertyOp10
 70
     1
102
RTVSPropertyOp11
 70
     1
102
RTVSPropertyOp12
 70
     1
102
RTVSPropertyOp13
 70
     1
102
RTVSPropertyOp14
 70
     1
102
RTVSPropertyOp15
 70
     1
102
RTVSPropertyOp16
 70
     1
102
RTVSPropertyOp17
 70
     1
102
RTVSPropertyOp18
 70
     1
102
RTVSPropertyOp19
 70
     1
102
RTVSPropertyOp20
 70
     1
102
RTVSPropertyOp21
 70
     1
102
RTVSPropertyOp22
 70
     1
102
RTVSPropertyOp23
 70
     1
102
RTVSPropertyOp24
 70
     1
102
RTVSPropertyOp25
 70
     1
102
RTVSPropertyOp26
 70
     1
102
RTVSPropertyOp27
 70
     1
102
RTVSPropertyOp28
 70
     1
102
RTVSPropertyOp29
 70
     1
102
RTVSPropertyOp30
 70
     1
102
RTVSPropertyOp31
 70
     1
102
RTVSPropertyOp32
 70
     1
102
RTVSPropertyOp33
 70
     1
102
RTVSPropertyOp34
 70
     1
102
RTVSPropertyOp35
 70
     1
102
RTVSPropertyOp36
 70
     1
102
RTVSPropertyOp37
 70
     1
102
RTVSPropertyOp38
 70
     1
102
RTVSPropertyOp39
 70
     1
102
RTVSPropertyOp40
 70
     1
102
RTVSPropertyOp41
 70
     1
102
RTVSPropertyOp42
 70
     1
102
RTVSPropertyOp43
 70
     1
102
RTVSPropertyOp44
 70
     1
102
RTVSPropertyOp45
 70
     1
102
RTVSPropertyOp46
 70
     1
102
RTVSPropertyOp47
 70
     1
102
RTVSPropertyOp48
 70
     1
102
RTVSPropertyOp49
 70
     1
102
RTVSPropertyOp50
 70
     1
102
RTVSPropertyOp51
 70
     0
102
RTVSPropertyOp52
 70
     0
102
RTVSPropertyOp53
 70
     1
102
RTVSPropertyOp54
 70
     1
102
RTVSPropertyOp55
 70
     1
102
RTVSPropertyOp56
 70
     1
102
RTVSPropertyOp57
 70
     1
102
RTVSPost2010Prop28
280
     0
102
RTVSPost2010PropOp28
 70
     1
102
RTVSPost2010Prop29
280
     1
102
RTVSPost2010PropOp29
 70
     1
102
RTVSPost2010Prop30
280
     1
102
RTVSPost2010PropOp30
 70
     1
102
RTVSPost2010Prop31
280
     0
102
RTVSPost2010PropOp31
 70
     1
102
RTVSPost2010Prop32
280
     0
102
RTVSPost2010PropOp32
 70
     1
102
RTVSPost2010Prop33
280
     0
102
RTVSPost2010PropOp33
 70
     1
102
RTVSPost2010Prop34
280
     0
102
RTVSPost2010PropOp34
 70
     1
102
RTVSPost2010Prop35
280
     0
102
RTVSPost2010PropOp35
 70
     1
102
RTVSPost2010Prop36
280
     0
102
RTVSPost2010PropOp36
 70
     1
102
RTVSPost2010Prop37
 90
       50
102
RTVSPost2010PropOp37
 70
     1
102
RTVSPost2010Prop38
140
0.0
102
RTVSPost2010PropOp38
 70
     1
102
RTVSPost2010Prop39
140
1.0
102
RTVSPost2010PropOp39
 70
     1
102
RTVSPost2010Prop40
 90
        0
102
RTVSPost2010PropOp40
 70
     1
102
RTVSPost2010Prop41ColorIndex
 90
       18
102
RTVSPost2010Prop41ColorRGB
 90
        0
102
RTVSPost2010PropOp41
 70
     1
102
RTVSPost2010Prop42
 90
       50
102
RTVSPost2010PropOp42
 70
     1
102
RTVSPost2010Prop43
 90
        3
102
RTVSPost2010PropOp43
 70
     1
102
RTVSPost2010Prop44ColorIndex
 90
        5
102
RTVSPost2010Prop44ColorRGB
 90
      255
102
RTVSPost2010PropOp44
 70
     1
102
RTVSPost2010Prop45
280
     0
102
RTVSPost2010PropOp45
 70
     1
102
RTVSPost2010Prop46
 90
       50
102
RTVSPost2010PropOp46
 70
     1
102
RTVSPost2010Prop47
 90
       50
102
RTVSPost2010PropOp47
 70
     1
102
RTVSPost2010Prop48
 90
       50
102
RTVSPost2010PropOp48
 70
     1
102
RTVSPost2010Prop49
280
     0
102
RTVSPost2010PropOp49
 70
     1
102
RTVSPost2010Prop50
 90
       50
102
RTVSPost2010PropOp50
 70
     1
102
RTVSPost2010Prop51ColorIndex
 90
      256
102
RTVSPost2010Prop51ColorRGB
 90
-16777216
102
RTVSPost2010PropOp51
 70
     0
102
RTVSPost2010Prop52
140
1.0
102
RTVSPost2010PropOp52
 70
     0
102
RTVSPost2010Prop53
 90
        2
102
RTVSPost2010PropOp53
 70
     1
102
RTVSPost2010Prop54
  1
strokes_ogs.tif
102
RTVSPost2010PropOp54
 70
     1
102
RTVSPost2010Prop55
280
     0
102
RTVSPost2010PropOp55
 70
     1
102
RTVSPost2010Prop56
140
1.0
102
RTVSPost2010PropOp56
 70
     1
102
RTVSPost2010Prop57
140
1.0
102
RTVSPost2010PropOp57
 70
     1
  0
XRECORD
  5
1A1
102
{ACAD_REACTORS
330
1A0
102
}
330
1A0
100
AcDbXrecord
280
     1
102
RTVSPropertyOp0
 70
     1
102
RTVSPropertyOp1
 70
     1
102
RTVSPropertyOp2
 70
     1
102
RTVSPropertyOp3
 70
     1
102
RTVSPropertyOp4
 70
     1
102
RTVSPropertyOp5
 70
     1
102
RTVSPropertyOp6
 70
     1
102
RTVSPropertyOp7
 70
     1
102
RTVSPropertyOp8
 70
     1
102
RTVSPropertyOp9
 70
     1
102
RTVSPropertyOp10
 70
     1
102
RTVSPropertyOp11
 70
     1
102
RTVSPropertyOp12
 70
     1
102
RTVSPropertyOp13
 70
     1
102
RTVSPropertyOp14
 70
     1
102
RTVSPropertyOp15
 70
     1
102
RTVSPropertyOp16
 70
     1
102
RTVSPropertyOp17
 70
     1
102
RTVSPropertyOp18
 70
     1
102
RTVSPropertyOp19
 70
     1
102
RTVSPropertyOp20
 70
     1
102
RTVSPropertyOp21
 70
     1
102
RTVSPropertyOp22
 70
     1
102
RTVSPropertyOp23
 70
     1
102
RTVSPropertyOp24
 70
     1
102
RTVSPropertyOp25
 70
     1
102
RTVSPropertyOp26
 70
     1
102
RTVSPropertyOp27
 70
     1
102
RTVSPropertyOp28
 70
     1
102
RTVSPropertyOp29
 70
     1
102
RTVSPropertyOp30
 70
     1
102
RTVSPropertyOp31
 70
     1
102
RTVSPropertyOp32
 70
     1
102
RTVSPropertyOp33
 70
     1
102
RTVSPropertyOp34
 70
     1
102
RTVSPropertyOp35
 70
     1
102
RTVSPropertyOp36
 70
     1
102
RTVSPropertyOp37
 70
     1
102
RTVSPropertyOp38
 70
     1
102
RTVSPropertyOp39
 70
     1
102
RTVSPropertyOp40
 70
     1
102
RTVSPropertyOp41
 70
     1
102
RTVSPropertyOp42
 70
     1
102
RTVSPropertyOp43
 70
     1
102
RTVSPropertyOp44
 70
     1
102
RTVSPropertyOp45
 70
     1
102
RTVSPropertyOp46
 70
     1
102
RTVSPropertyOp47
 70
     1
102
RTVSPropertyOp48
 70
     1
102
RTVSPropertyOp49
 70
     1
102
RTVSPropertyOp50
 70
     1
102
RTVSPropertyOp51
 70
     0
102
RTVSPropertyOp52
 70
     0
102
RTVSPropertyOp53
 70
     1
102
RTVSPropertyOp54
 70
     1
102
RTVSPropertyOp55
 70
     1
102
RTVSPropertyOp56
 70
     1
102
RTVSPropertyOp57
 70
     1
102
RTVSPost2010Prop28
280
     0
102
RTVSPost2010PropOp28
 70
     1
102
RTVSPost2010Prop29
280
     1
102
RTVSPost2010PropOp29
 70
     1
102
RTVSPost2010Prop30
280
     1
102
RTVSPost2010PropOp30
 70
     1
102
RTVSPost2010Prop31
280
     0
102
RTVSPost2010PropOp31
 70
     1
102
RTVSPost2010Prop32
280
     0
102
RTVSPost2010PropOp32
 70
     1
102
RTVSPost2010Prop33
280
     0
102
RTVSPost2010PropOp33
 70
     1
102
RTVSPost2010Prop34
280
     0
102
RTVSPost2010PropOp34
 70
     1
102
RTVSPost2010Prop35
280
     0
102
RTVSPost2010PropOp35
 70
     1
102
RTVSPost2010Prop36
280
     0
102
RTVSPost2010PropOp36
 70
     1
102
RTVSPost2010Prop37
 90
       50
102
RTVSPost2010PropOp37
 70
     1
102
RTVSPost2010Prop38
140
0.0
102
RTVSPost2010PropOp38
 70
     1
102
RTVSPost2010Prop39
140
1.0
102
RTVSPost2010PropOp39
 70
     1
102
RTVSPost2010Prop40
 90
        0
102
RTVSPost2010PropOp40
 70
     1
102
RTVSPost2010Prop41ColorIndex
 90
       18
102
RTVSPost2010Prop41ColorRGB
 90
        0
102
RTVSPost2010PropOp41
 70
     1
102
RTVSPost2010Prop42
 90
       50
102
RTVSPost2010PropOp42
 70
     1
102
RTVSPost2010Prop43
 90
        3
102
RTVSPost2010PropOp43
 70
     1
102
RTVSPost2010Prop44ColorIndex
 90
        5
102
RTVSPost2010Prop44ColorRGB
 90
      255
102
RTVSPost2010PropOp44
 70
     1
102
RTVSPost2010Prop45
280
     0
102
RTVSPost2010PropOp45
 70
     1
102
RTVSPost2010Prop46
 90
       50
102
RTVSPost2010PropOp46
 70
     1
102
RTVSPost2010Prop47
 90
       50
102
RTVSPost2010PropOp47
 70
     1
102
RTVSPost2010Prop48
 90
       50
102
RTVSPost2010PropOp48
 70
     1
102
RTVSPost2010Prop49
280
     0
102
RTVSPost2010PropOp49
 70
     1
102
RTVSPost2010Prop50
 90
       50
102
RTVSPost2010PropOp50
 70
     1
102
RTVSPost2010Prop51ColorIndex
 90
      256
102
RTVSPost2010Prop51ColorRGB
 90
-16777216
102
RTVSPost2010PropOp51
 70
     0
102
RTVSPost2010Prop52
140
1.0
102
RTVSPost2010PropOp52
 70
     0
102
RTVSPost2010Prop53
 90
        2
102
RTVSPost2010PropOp53
 70
     1
102
RTVSPost2010Prop54
  1
strokes_ogs.tif
102
RTVSPost2010PropOp54
 70
     1
102
RTVSPost2010Prop55
280
     0
102
RTVSPost2010PropOp55
 70
     1
102
RTVSPost2010Prop56
140
1.0
102
RTVSPost2010PropOp56
 70
     1
102
RTVSPost2010Prop57
140
1.0
102
RTVSPost2010PropOp57
 70
     1
  0
XRECORD
  5
191
102
{ACAD_REACTORS
330
190
102
}
330
190
100
AcDbXrecord
280
     1
102
RTVSPropertyOp0
 70
     1
102
RTVSPropertyOp1
 70
     1
102
RTVSPropertyOp2
 70
     1
102
RTVSPropertyOp3
 70
     1
102
RTVSPropertyOp4
 70
     1
102
RTVSPropertyOp5
 70
     1
102
RTVSPropertyOp6
 70
     1
102
RTVSPropertyOp7
 70
     1
102
RTVSPropertyOp8
 70
     1
102
RTVSPropertyOp9
 70
     1
102
RTVSPropertyOp10
 70
     1
102
RTVSPropertyOp11
 70
     1
102
RTVSPropertyOp12
 70
     1
102
RTVSPropertyOp13
 70
     1
102
RTVSPropertyOp14
 70
     1
102
RTVSPropertyOp15
 70
     1
102
RTVSPropertyOp16
 70
     1
102
RTVSPropertyOp17
 70
     1
102
RTVSPropertyOp18
 70
     1
102
RTVSPropertyOp19
 70
     1
102
RTVSPropertyOp20
 70
     1
102
RTVSPropertyOp21
 70
     1
102
RTVSPropertyOp22
 70
     1
102
RTVSPropertyOp23
 70
     1
102
RTVSPropertyOp24
 70
     1
102
RTVSPropertyOp25
 70
     1
102
RTVSPropertyOp26
 70
     1
102
RTVSPropertyOp27
 70
     1
102
RTVSPropertyOp28
 70
     1
102
RTVSPropertyOp29
 70
     1
102
RTVSPropertyOp30
 70
     1
102
RTVSPropertyOp31
 70
     1
102
RTVSPropertyOp32
 70
     1
102
RTVSPropertyOp33
 70
     1
102
RTVSPropertyOp34
 70
     1
102
RTVSPropertyOp35
 70
     1
102
RTVSPropertyOp36
 70
     1
102
RTVSPropertyOp37
 70
     1
102
RTVSPropertyOp38
 70
     1
102
RTVSPropertyOp39
 70
     1
102
RTVSPropertyOp40
 70
     1
102
RTVSPropertyOp41
 70
     1
102
RTVSPropertyOp42
 70
     1
102
RTVSPropertyOp43
 70
     1
102
RTVSPropertyOp44
 70
     1
102
RTVSPropertyOp45
 70
     1
102
RTVSPropertyOp46
 70
     1
102
RTVSPropertyOp47
 70
     1
102
RTVSPropertyOp48
 70
     1
102
RTVSPropertyOp49
 70
     1
102
RTVSPropertyOp50
 70
     1
102
RTVSPropertyOp51
 70
     0
102
RTVSPropertyOp52
 70
     0
102
RTVSPropertyOp53
 70
     1
102
RTVSPropertyOp54
 70
     1
102
RTVSPropertyOp55
 70
     1
102
RTVSPropertyOp56
 70
     1
102
RTVSPropertyOp57
 70
     1
102
RTVSPost2010Prop28
280
     0
102
RTVSPost2010PropOp28
 70
     1
102
RTVSPost2010Prop29
280
     1
102
RTVSPost2010PropOp29
 70
     1
102
RTVSPost2010Prop30
280
     1
102
RTVSPost2010PropOp30
 70
     1
102
RTVSPost2010Prop31
280
     0
102
RTVSPost2010PropOp31
 70
     1
102
RTVSPost2010Prop32
280
     0
102
RTVSPost2010PropOp32
 70
     1
102
RTVSPost2010Prop33
280
     0
102
RTVSPost2010PropOp33
 70
     1
102
RTVSPost2010Prop34
280
     0
102
RTVSPost2010PropOp34
 70
     1
102
RTVSPost2010Prop35
280
     0
102
RTVSPost2010PropOp35
 70
     1
102
RTVSPost2010Prop36
280
     0
102
RTVSPost2010PropOp36
 70
     1
102
RTVSPost2010Prop37
 90
       50
102
RTVSPost2010PropOp37
 70
     1
102
RTVSPost2010Prop38
140
0.0
102
RTVSPost2010PropOp38
 70
     1
102
RTVSPost2010Prop39
140
1.0
102
RTVSPost2010PropOp39
 70
     1
102
RTVSPost2010Prop40
 90
        0
102
RTVSPost2010PropOp40
 70
     1
102
RTVSPost2010Prop41ColorIndex
 90
       18
102
RTVSPost2010Prop41ColorRGB
 90
        0
102
RTVSPost2010PropOp41
 70
     1
102
RTVSPost2010Prop42
 90
       50
102
RTVSPost2010PropOp42
 70
     1
102
RTVSPost2010Prop43
 90
        3
102
RTVSPost2010PropOp43
 70
     1
102
RTVSPost2010Prop44ColorIndex
 90
        5
102
RTVSPost2010Prop44ColorRGB
 90
      255
102
RTVSPost2010PropOp44
 70
     1
102
RTVSPost2010Prop45
280
     0
102
RTVSPost2010PropOp45
 70
     1
102
RTVSPost2010Prop46
 90
       50
102
RTVSPost2010PropOp46
 70
     1
102
RTVSPost2010Prop47
 90
       50
102
RTVSPost2010PropOp47
 70
     1
102
RTVSPost2010Prop48
 90
       50
102
RTVSPost2010PropOp48
 70
     1
102
RTVSPost2010Prop49
280
     0
102
RTVSPost2010PropOp49
 70
     1
102
RTVSPost2010Prop50
 90
       50
102
RTVSPost2010PropOp50
 70
     1
102
RTVSPost2010Prop51ColorIndex
 90
      256
102
RTVSPost2010Prop51ColorRGB
 90
-16777216
102
RTVSPost2010PropOp51
 70
     0
102
RTVSPost2010Prop52
140
1.0
102
RTVSPost2010PropOp52
 70
     0
102
RTVSPost2010Prop53
 90
        2
102
RTVSPost2010PropOp53
 70
     1
102
RTVSPost2010Prop54
  1
strokes_ogs.tif
102
RTVSPost2010PropOp54
 70
     1
102
RTVSPost2010Prop55
280
     0
102
RTVSPost2010PropOp55
 70
     1
102
RTVSPost2010Prop56
140
1.0
102
RTVSPost2010PropOp56
 70
     1
102
RTVSPost2010Prop57
140
1.0
102
RTVSPost2010PropOp57
 70
     1
  0
XRECORD
  5
183
102
{ACAD_REACTORS
330
182
102
}
330
182
100
AcDbXrecord
280
     1
102
RTVSPropertyOp0
 70
     1
102
RTVSPropertyOp1
 70
     1
102
RTVSPropertyOp2
 70
     1
102
RTVSPropertyOp3
 70
     1
102
RTVSPropertyOp4
 70
     1
102
RTVSPropertyOp5
 70
     1
102
RTVSPropertyOp6
 70
     1
102
RTVSPropertyOp7
 70
     1
102
RTVSPropertyOp8
 70
     1
102
RTVSPropertyOp9
 70
     1
102
RTVSPropertyOp10
 70
     1
102
RTVSPropertyOp11
 70
     1
102
RTVSPropertyOp12
 70
     1
102
RTVSPropertyOp13
 70
     1
102
RTVSPropertyOp14
 70
     1
102
RTVSPropertyOp15
 70
     1
102
RTVSPropertyOp16
 70
     1
102
RTVSPropertyOp17
 70
     1
102
RTVSPropertyOp18
 70
     1
102
RTVSPropertyOp19
 70
     1
102
RTVSPropertyOp20
 70
     1
102
RTVSPropertyOp21
 70
     1
102
RTVSPropertyOp22
 70
     1
102
RTVSPropertyOp23
 70
     1
102
RTVSPropertyOp24
 70
     1
102
RTVSPropertyOp25
 70
     1
102
RTVSPropertyOp26
 70
     1
102
RTVSPropertyOp27
 70
     1
102
RTVSPropertyOp28
 70
     1
102
RTVSPropertyOp29
 70
     1
102
RTVSPropertyOp30
 70
     1
102
RTVSPropertyOp31
 70
     1
102
RTVSPropertyOp32
 70
     1
102
RTVSPropertyOp33
 70
     1
102
RTVSPropertyOp34
 70
     1
102
RTVSPropertyOp35
 70
     1
102
RTVSPropertyOp36
 70
     1
102
RTVSPropertyOp37
 70
     1
102
RTVSPropertyOp38
 70
     1
102
RTVSPropertyOp39
 70
     1
102
RTVSPropertyOp40
 70
     1
102
RTVSPropertyOp41
 70
     1
102
RTVSPropertyOp42
 70
     1
102
RTVSPropertyOp43
 70
     1
102
RTVSPropertyOp44
 70
     1
102
RTVSPropertyOp45
 70
     1
102
RTVSPropertyOp46
 70
     1
102
RTVSPropertyOp47
 70
     1
102
RTVSPropertyOp48
 70
     1
102
RTVSPropertyOp49
 70
     1
102
RTVSPropertyOp50
 70
     1
102
RTVSPropertyOp51
 70
     0
102
RTVSPropertyOp52
 70
     0
102
RTVSPropertyOp53
 70
     1
102
RTVSPropertyOp54
 70
     1
102
RTVSPropertyOp55
 70
     1
102
RTVSPropertyOp56
 70
     1
102
RTVSPropertyOp57
 70
     1
102
RTVSPost2010Prop28
280
     0
102
RTVSPost2010PropOp28
 70
     1
102
RTVSPost2010Prop29
280
     1
102
RTVSPost2010PropOp29
 70
     1
102
RTVSPost2010Prop30
280
     1
102
RTVSPost2010PropOp30
 70
     1
102
RTVSPost2010Prop31
280
     0
102
RTVSPost2010PropOp31
 70
     1
102
RTVSPost2010Prop32
280
     0
102
RTVSPost2010PropOp32
 70
     1
102
RTVSPost2010Prop33
280
     0
102
RTVSPost2010PropOp33
 70
     1
102
RTVSPost2010Prop34
280
     0
102
RTVSPost2010PropOp34
 70
     1
102
RTVSPost2010Prop35
280
     0
102
RTVSPost2010PropOp35
 70
     1
102
RTVSPost2010Prop36
280
     0
102
RTVSPost2010PropOp36
 70
     1
102
RTVSPost2010Prop37
 90
       50
102
RTVSPost2010PropOp37
 70
     1
102
RTVSPost2010Prop38
140
0.0
102
RTVSPost2010PropOp38
 70
     1
102
RTVSPost2010Prop39
140
1.0
102
RTVSPost2010PropOp39
 70
     1
102
RTVSPost2010Prop40
 90
        0
102
RTVSPost2010PropOp40
 70
     1
102
RTVSPost2010Prop41ColorIndex
 90
       18
102
RTVSPost2010Prop41ColorRGB
 90
        0
102
RTVSPost2010PropOp41
 70
     1
102
RTVSPost2010Prop42
 90
       50
102
RTVSPost2010PropOp42
 70
     1
102
RTVSPost2010Prop43
 90
        3
102
RTVSPost2010PropOp43
 70
     1
102
RTVSPost2010Prop44ColorIndex
 90
        5
102
RTVSPost2010Prop44ColorRGB
 90
      255
102
RTVSPost2010PropOp44
 70
     1
102
RTVSPost2010Prop45
280
     0
102
RTVSPost2010PropOp45
 70
     1
102
RTVSPost2010Prop46
 90
       50
102
RTVSPost2010PropOp46
 70
     1
102
RTVSPost2010Prop47
 90
       50
102
RTVSPost2010PropOp47
 70
     1
102
RTVSPost2010Prop48
 90
       50
102
RTVSPost2010PropOp48
 70
     1
102
RTVSPost2010Prop49
280
     0
102
RTVSPost2010PropOp49
 70
     1
102
RTVSPost2010Prop50
 90
       50
102
RTVSPost2010PropOp50
 70
     1
102
RTVSPost2010Prop51ColorIndex
 90
      256
102
RTVSPost2010Prop51ColorRGB
 90
-16777216
102
RTVSPost2010PropOp51
 70
     0
102
RTVSPost2010Prop52
140
1.0
102
RTVSPost2010PropOp52
 70
     0
102
RTVSPost2010Prop53
 90
        2
102
RTVSPost2010PropOp53
 70
     1
102
RTVSPost2010Prop54
  1
strokes_ogs.tif
102
RTVSPost2010PropOp54
 70
     1
102
RTVSPost2010Prop55
280
     0
102
RTVSPost2010PropOp55
 70
     1
102
RTVSPost2010Prop56
140
1.0
102
RTVSPost2010PropOp56
 70
     1
102
RTVSPost2010Prop57
140
1.0
102
RTVSPost2010PropOp57
 70
     1
  0
XRECORD
  5
1A3
102
{ACAD_REACTORS
330
1A2
102
}
330
1A2
100
AcDbXrecord
280
     1
102
RTVSPropertyOp0
 70
     1
102
RTVSPropertyOp1
 70
     1
102
RTVSPropertyOp2
 70
     1
102
RTVSPropertyOp3
 70
     1
102
RTVSPropertyOp4
 70
     1
102
RTVSPropertyOp5
 70
     1
102
RTVSPropertyOp6
 70
     1
102
RTVSPropertyOp7
 70
     1
102
RTVSPropertyOp8
 70
     1
102
RTVSPropertyOp9
 70
     1
102
RTVSPropertyOp10
 70
     1
102
RTVSPropertyOp11
 70
     1
102
RTVSPropertyOp12
 70
     1
102
RTVSPropertyOp13
 70
     1
102
RTVSPropertyOp14
 70
     1
102
RTVSPropertyOp15
 70
     1
102
RTVSPropertyOp16
 70
     1
102
RTVSPropertyOp17
 70
     1
102
RTVSPropertyOp18
 70
     1
102
RTVSPropertyOp19
 70
     1
102
RTVSPropertyOp20
 70
     1
102
RTVSPropertyOp21
 70
     1
102
RTVSPropertyOp22
 70
     1
102
RTVSPropertyOp23
 70
     1
102
RTVSPropertyOp24
 70
     1
102
RTVSPropertyOp25
 70
     1
102
RTVSPropertyOp26
 70
     1
102
RTVSPropertyOp27
 70
     1
102
RTVSPropertyOp28
 70
     1
102
RTVSPropertyOp29
 70
     1
102
RTVSPropertyOp30
 70
     1
102
RTVSPropertyOp31
 70
     1
102
RTVSPropertyOp32
 70
     1
102
RTVSPropertyOp33
 70
     1
102
RTVSPropertyOp34
 70
     1
102
RTVSPropertyOp35
 70
     1
102
RTVSPropertyOp36
 70
     1
102
RTVSPropertyOp37
 70
     1
102
RTVSPropertyOp38
 70
     1
102
RTVSPropertyOp39
 70
     1
102
RTVSPropertyOp40
 70
     1
102
RTVSPropertyOp41
 70
     1
102
RTVSPropertyOp42
 70
     1
102
RTVSPropertyOp43
 70
     1
102
RTVSPropertyOp44
 70
     1
102
RTVSPropertyOp45
 70
     1
102
RTVSPropertyOp46
 70
     1
102
RTVSPropertyOp47
 70
     1
102
RTVSPropertyOp48
 70
     1
102
RTVSPropertyOp49
 70
     1
102
RTVSPropertyOp50
 70
     1
102
RTVSPropertyOp51
 70
     0
102
RTVSPropertyOp52
 70
     0
102
RTVSPropertyOp53
 70
     1
102
RTVSPropertyOp54
 70
     1
102
RTVSPropertyOp55
 70
     1
102
RTVSPropertyOp56
 70
     1
102
RTVSPropertyOp57
 70
     1
102
RTVSPost2010Prop28
280
     0
102
RTVSPost2010PropOp28
 70
     1
102
RTVSPost2010Prop29
280
     1
102
RTVSPost2010PropOp29
 70
     1
102
RTVSPost2010Prop30
280
     1
102
RTVSPost2010PropOp30
 70
     1
102
RTVSPost2010Prop31
280
     0
102
RTVSPost2010PropOp31
 70
     1
102
RTVSPost2010Prop32
280
     0
102
RTVSPost2010PropOp32
 70
     1
102
RTVSPost2010Prop33
280
     0
102
RTVSPost2010PropOp33
 70
     1
102
RTVSPost2010Prop34
280
     0
102
RTVSPost2010PropOp34
 70
     1
102
RTVSPost2010Prop35
280
     0
102
RTVSPost2010PropOp35
 70
     1
102
RTVSPost2010Prop36
280
     0
102
RTVSPost2010PropOp36
 70
     1
102
RTVSPost2010Prop37
 90
       50
102
RTVSPost2010PropOp37
 70
     1
102
RTVSPost2010Prop38
140
0.0
102
RTVSPost2010PropOp38
 70
     1
102
RTVSPost2010Prop39
140
1.0
102
RTVSPost2010PropOp39
 70
     1
102
RTVSPost2010Prop40
 90
        0
102
RTVSPost2010PropOp40
 70
     1
102
RTVSPost2010Prop41ColorIndex
 90
       18
102
RTVSPost2010Prop41ColorRGB
 90
        0
102
RTVSPost2010PropOp41
 70
     1
102
RTVSPost2010Prop42
 90
       50
102
RTVSPost2010PropOp42
 70
     1
102
RTVSPost2010Prop43
 90
        3
102
RTVSPost2010PropOp43
 70
     1
102
RTVSPost2010Prop44ColorIndex
 90
        5
102
RTVSPost2010Prop44ColorRGB
 90
      255
102
RTVSPost2010PropOp44
 70
     1
102
RTVSPost2010Prop45
280
     0
102
RTVSPost2010PropOp45
 70
     1
102
RTVSPost2010Prop46
 90
       50
102
RTVSPost2010PropOp46
 70
     1
102
RTVSPost2010Prop47
 90
       50
102
RTVSPost2010PropOp47
 70
     1
102
RTVSPost2010Prop48
 90
       50
102
RTVSPost2010PropOp48
 70
     1
102
RTVSPost2010Prop49
280
     0
102
RTVSPost2010PropOp49
 70
     1
102
RTVSPost2010Prop50
 90
       50
102
RTVSPost2010PropOp50
 70
     1
102
RTVSPost2010Prop51ColorIndex
 90
      256
102
RTVSPost2010Prop51ColorRGB
 90
-16777216
102
RTVSPost2010PropOp51
 70
     0
102
RTVSPost2010Prop52
140
1.0
102
RTVSPost2010PropOp52
 70
     0
102
RTVSPost2010Prop53
 90
        2
102
RTVSPost2010PropOp53
 70
     1
102
RTVSPost2010Prop54
  1
strokes_ogs.tif
102
RTVSPost2010PropOp54
 70
     1
102
RTVSPost2010Prop55
280
     0
102
RTVSPost2010PropOp55
 70
     1
102
RTVSPost2010Prop56
140
1.0
102
RTVSPost2010PropOp56
 70
     1
102
RTVSPost2010Prop57
140
1.0
102
RTVSPost2010PropOp57
 70
     1
  0
ENDSEC
  0
EOF
